  0
SECTION
  2
HEADER
  9
$ACADVER
  1
AC1015
  9
$ACADMAINTVER
 70
     6
  9
$DWGCODEPAGE
  3
ANSI_1254
  9
$INSBASE
 10
0.0
 20
0.0
 30
0.0
  9
$EXTMIN
 10
0.0
 20
0.0
 30
0.0
  9
$EXTMAX
 10
279.4
 20
215.9
 30
0.0
  9
$LIMMIN
 10
0.0
 20
0.0
  9
$LIMMAX
 10
279.4
 20
215.9
  9
$ORTHOMODE
 70
     0
  9
$REGENMODE
 70
     1
  9
$FILLMODE
 70
     1
  9
$QTEXTMODE
 70
     0
  9
$MIRRTEXT
 70
     1
  9
$LTSCALE
 40
1.0
  9
$ATTMODE
 70
     1
  9
$TEXTSIZE
 40
3.5
  9
$TRACEWID
 40
1.0
  9
$TEXTSTYLE
  7
Standard
  9
$CLAYER
  8
0
  9
$CELTYPE
  6
ByLayer
  9
$CECOLOR
 62
   256
  9
$CELTSCALE
 40
1.0
  9
$DISPSILH
 70
     0
  9
$DIMSCALE
 40
1.0
  9
$DIMASZ
 40
3.5
  9
$DIMEXO
 40
1.0
  9
$DIMDLI
 40
3.75
  9
$DIMRND
 40
0.0
  9
$DIMDLE
 40
0.0
  9
$DIMEXE
 40
1.0
  9
$DIMTP
 40
0.0
  9
$DIMTM
 40
0.0
  9
$DIMTXT
 40
3.5
  9
$DIMCEN
 40
2.5
  9
$DIMTSZ
 40
0.0
  9
$DIMTOL
 70
     0
  9
$DIMLIM
 70
     0
  9
$DIMTIH
 70
     1
  9
$DIMTOH
 70
     1
  9
$DIMSE1
 70
     0
  9
$DIMSE2
 70
     0
  9
$DIMTAD
 70
     1
  9
$DIMZIN
 70
     0
  9
$DIMBLK
  1

  9
$DIMASO
 70
     1
  9
$DIMSHO
 70
     1
  9
$DIMPOST
  1

  9
$DIMAPOST
  1

  9
$DIMALT
 70
     0
  9
$DIMALTD
 70
     3
  9
$DIMALTF
 40
0.0393700787
  9
$DIMLFAC
 40
1.0
  9
$DIMTOFL
 70
     1
  9
$DIMTVP
 40
0.0
  9
$DIMTIX
 70
     0
  9
$DIMSOXD
 70
     0
  9
$DIMSAH
 70
     0
  9
$DIMBLK1
  1

  9
$DIMBLK2
  1

  9
$DIMSTYLE
  2
ISO-25
  9
$DIMCLRD
 70
     0
  9
$DIMCLRE
 70
     0
  9
$DIMCLRT
 70
     0
  9
$DIMTFAC
 40
1.0
  9
$DIMGAP
 40
1.524
  9
$DIMJUST
 70
     0
  9
$DIMSD1
 70
     0
  9
$DIMSD2
 70
     0
  9
$DIMTOLJ
 70
     0
  9
$DIMTZIN
 70
     0
  9
$DIMALTZ
 70
     0
  9
$DIMALTTZ
 70
     0
  9
$DIMUPT
 70
     0
  9
$DIMDEC
 70
     2
  9
$DIMTDEC
 70
     2
  9
$DIMALTU
 70
     2
  9
$DIMALTTD
 70
     3
  9
$DIMTXSTY
  7
Standard
  9
$DIMAUNIT
 70
     0
  9
$DIMADEC
 70
     2
  9
$DIMALTRND
 40
0.0
  9
$DIMAZIN
 70
     0
  9
$DIMDSEP
 70
    44
  9
$DIMATFIT
 70
     3
  9
$DIMFRAC
 70
     0
  9
$DIMLDRBLK
  1

  9
$DIMLUNIT
 70
     2
  9
$DIMLWD
 70
    -2
  9
$DIMLWE
 70
    -2
  9
$DIMTMOVE
 70
     0
  9
$LUNITS
 70
     2
  9
$LUPREC
 70
     2
  9
$SKETCHINC
 40
1.0
  9
$FILLETRAD
 40
10.0
  9
$AUNITS
 70
     0
  9
$AUPREC
 70
     2
  9
$MENU
  1
.
  9
$ELEVATION
 40
0.0
  9
$PELEVATION
 40
0.0
  9
$THICKNESS
 40
0.0
  9
$LIMCHECK
 70
     0
  9
$CHAMFERA
 40
0.0
  9
$CHAMFERB
 40
0.0
  9
$CHAMFERC
 40
0.0
  9
$CHAMFERD
 40
0.0
  9
$SKPOLY
 70
     0
  9
$TDCREATE
 40
2458985.721398125
  9
$TDUCREATE
 40
2458985.596398125
  9
$TDUPDATE
 40
2458985.72139838
  9
$TDUUPDATE
 40
2458985.59639838
  9
$TDINDWG
 40
0.0000000116
  9
$TDUSRTIMER
 40
0.0000000116
  9
$USRTIMER
 70
     1
  9
$ANGBASE
 50
0.0
  9
$ANGDIR
 70
     0
  9
$PDMODE
 70
     0
  9
$PDSIZE
 40
-1.0
  9
$PLINEWID
 40
0.0
  9
$SPLFRAME
 70
     0
  9
$SPLINETYPE
 70
     6
  9
$SPLINESEGS
 70
     8
  9
$HANDSEED
  5
DD
  9
$SURFTAB1
 70
     6
  9
$SURFTAB2
 70
     6
  9
$SURFTYPE
 70
     6
  9
$SURFU
 70
     6
  9
$SURFV
 70
     6
  9
$UCSBASE
  2

  9
$UCSNAME
  2

  9
$UCSORG
 10
0.0
 20
0.0
 30
0.0
  9
$UCSXDIR
 10
1.0
 20
0.0
 30
0.0
  9
$UCSYDIR
 10
0.0
 20
1.0
 30
0.0
  9
$UCSORTHOREF
  2

  9
$UCSORTHOVIEW
 70
     0
  9
$UCSORGTOP
 10
0.0
 20
0.0
 30
0.0
  9
$UCSORGBOTTOM
 10
0.0
 20
0.0
 30
0.0
  9
$UCSORGLEFT
 10
0.0
 20
0.0
 30
0.0
  9
$UCSORGRIGHT
 10
0.0
 20
0.0
 30
0.0
  9
$UCSORGFRONT
 10
0.0
 20
0.0
 30
0.0
  9
$UCSORGBACK
 10
0.0
 20
0.0
 30
0.0
  9
$PUCSBASE
  2

  9
$PUCSNAME
  2

  9
$PUCSORG
 10
0.0
 20
0.0
 30
0.0
  9
$PUCSXDIR
 10
1.0
 20
0.0
 30
0.0
  9
$PUCSYDIR
 10
0.0
 20
1.0
 30
0.0
  9
$PUCSORTHOREF
  2

  9
$PUCSORTHOVIEW
 70
     0
  9
$PUCSORGTOP
 10
0.0
 20
0.0
 30
0.0
  9
$PUCSORGBOTTOM
 10
0.0
 20
0.0
 30
0.0
  9
$PUCSORGLEFT
 10
0.0
 20
0.0
 30
0.0
  9
$PUCSORGRIGHT
 10
0.0
 20
0.0
 30
0.0
  9
$PUCSORGFRONT
 10
0.0
 20
0.0
 30
0.0
  9
$PUCSORGBACK
 10
0.0
 20
0.0
 30
0.0
  9
$USERI1
 70
     0
  9
$USERI2
 70
     0
  9
$USERI3
 70
     0
  9
$USERI4
 70
     0
  9
$USERI5
 70
     0
  9
$USERR1
 40
0.0
  9
$USERR2
 40
0.0
  9
$USERR3
 40
0.0
  9
$USERR4
 40
0.0
  9
$USERR5
 40
0.0
  9
$WORLDVIEW
 70
     1
  9
$SHADEDGE
 70
     3
  9
$SHADEDIF
 70
    70
  9
$TILEMODE
 70
     1
  9
$MAXACTVP
 70
    64
  9
$PINSBASE
 10
0.0
 20
0.0
 30
0.0
  9
$PLIMCHECK
 70
     0
  9
$PEXTMIN
 10
1.0000000000E+20
 20
1.0000000000E+20
 30
1.0000000000E+20
  9
$PEXTMAX
 10
-1.0000000000E+20
 20
-1.0000000000E+20
 30
-1.0000000000E+20
  9
$PLIMMIN
 10
0.0
 20
0.0
  9
$PLIMMAX
 10
420.0
 20
297.0
  9
$UNITMODE
 70
     0
  9
$VISRETAIN
 70
     1
  9
$PLINEGEN
 70
     0
  9
$PSLTSCALE
 70
     1
  9
$TREEDEPTH
 70
  3020
  9
$CMLSTYLE
  2
Standard
  9
$CMLJUST
 70
     0
  9
$CMLSCALE
 40
20.0
  9
$PROXYGRAPHICS
 70
     1
  9
$MEASUREMENT
 70
     1
  9
$CELWEIGHT
370
    -1
  9
$ENDCAPS
280
     0
  9
$JOINSTYLE
280
     0
  9
$LWDISPLAY
290
     1
  9
$INSUNITS
 70
     4
  9
$HYPERLINKBASE
  1

  9
$STYLESHEET
  1

  9
$XEDIT
290
     1
  9
$CEPSNTYPE
380
     0
  9
$PSTYLEMODE
290
     1
  9
$FINGERPRINTGUID
  2
{a8c1dd62-9f8e-4c1e-a52f-67ea9e69a8f1}
  9
$VERSIONGUID
  2
{FAEB1C32-E019-11D5-929B-00C0DF256EC4}
  9
$EXTNAMES
290
     1
  9
$PSVPSCALE
 40
0.0
  9
$OLESTARTUP
290
     0
  0
ENDSEC
  0
SECTION
  2
CLASSES
  0
CLASS
  1
ACDBDICTIONARYWDFLT
  2
AcDbDictionaryWithDefault
  3
ObjectDBX Classes
 90
        0
280
     0
281
     0
  0
CLASS
  1
VISUALSTYLE
  2
AcDbVisualStyle
  3
ObjectDBX Classes
 90
     4095
280
     0
281
     0
  0
CLASS
  1
MATERIAL
  2
AcDbMaterial
  3
ObjectDBX Classes
 90
     1153
280
     0
281
     0
  0
CLASS
  1
SCALE
  2
AcDbScale
  3
ObjectDBX Classes
 90
     1153
280
     0
281
     0
  0
CLASS
  1
TABLESTYLE
  2
AcDbTableStyle
  3
ObjectDBX Classes
 90
     4095
280
     0
281
     0
  0
CLASS
  1
MLEADERSTYLE
  2
AcDbMLeaderStyle
  3
ACDB_MLEADERSTYLE_CLASS
 90
     4095
280
     0
281
     0
  0
CLASS
  1
SUN
  2
AcDbSun
  3
SCENEOE
 90
     1153
280
     0
281
     0
  0
CLASS
  1
ACDBPLACEHOLDER
  2
AcDbPlaceHolder
  3
ObjectDBX Classes
 90
        0
280
     0
281
     0
  0
CLASS
  1
LAYOUT
  2
AcDbLayout
  3
ObjectDBX Classes
 90
        0
280
     0
281
     0
  0
ENDSEC
  0
SECTION
  2
TABLES
  0
TABLE
  2
VPORT
  5
8
330
0
100
AcDbSymbolTable
 70
     1
  0
VPORT
  5
29
330
8
100
AcDbSymbolTableRecord
100
AcDbViewportTableRecord
  2
*Active
 70
     0
 10
0.0
 20
0.0
 11
1.0
 21
1.0
 12
139.7
 22
107.95
 13
0.0
 23
0.0
 14
10.0
 24
10.0
 15
10.0
 25
10.0
 16
0.0
 26
0.0
 36
1.0
 17
0.0
 27
0.0
 37
0.0
 40
215.9
 41
1.2941176471
 42
50.0
 43
0.0
 44
0.0
 50
0.0
 51
0.0
 71
     0
 72
  2000
 73
     1
 74
     3
 75
     0
 76
     0
 77
     0
 78
     0
281
     0
 65
     1
110
0.0
120
0.0
130
0.0
111
1.0
121
0.0
131
0.0
112
0.0
122
1.0
132
0.0
 79
     0
146
0.0
  0
ENDTAB
  0
TABLE
  2
LTYPE
  5
5
330
0
100
AcDbSymbolTable
 70
     6
  0
LTYPE
  5
14
330
5
100
AcDbSymbolTableRecord
100
AcDbLinetypeTableRecord
  2
ByBlock
 70
     0
  3

 72
    65
 73
     0
 40
0.0
  0
LTYPE
  5
15
330
5
100
AcDbSymbolTableRecord
100
AcDbLinetypeTableRecord
  2
ByLayer
 70
     0
  3

 72
    65
 73
     0
 40
0.0
  0
LTYPE
  5
16
330
5
100
AcDbSymbolTableRecord
100
AcDbLinetypeTableRecord
  2
Continuous
 70
     0
  3
Solid line
 72
    65
 73
     0
 40
0.0
  0
LTYPE
  5
6E
330
5
100
AcDbSymbolTableRecord
100
AcDbLinetypeTableRecord
  2
HIDDEN
 70
     0
  3
Hidden __ __ __ __ __ __ __ __ __ __ __ __ __ __
 72
    65
 73
     2
 40
1.905
 49
1.27
 74
     0
 49
-0.635
 74
     0
  0
LTYPE
  5
6F
330
5
100
AcDbSymbolTableRecord
100
AcDbLinetypeTableRecord
  2
PHANTOM
 70
     0
  3
Phantom ______  __  __  ______  __  __  ______
 72
    65
 73
     6
 40
12.7
 49
6.35
 74
     0
 49
-1.27
 74
     0
 49
1.27
 74
     0
 49
-1.27
 74
     0
 49
1.27
 74
     0
 49
-1.27
 74
     0
  0
LTYPE
  5
70
330
5
100
AcDbSymbolTableRecord
100
AcDbLinetypeTableRecord
  2
CENTER
 70
     0
  3
Center ____ _ ____ _ ____ _ ____ _ ____ _ ____
 72
    65
 73
     4
 40
10.16
 49
6.35
 74
     0
 49
-1.27
 74
     0
 49
1.27
 74
     0
 49
-1.27
 74
     0
  0
LTYPE
  5
71
330
5
100
AcDbSymbolTableRecord
100
AcDbLinetypeTableRecord
  2
CENTERX2
 70
     0
  3
Center (2x) ________  __  ________  __  _____
 72
    65
 73
     4
 40
20.32
 49
12.7
 74
     0
 49
-2.54
 74
     0
 49
2.54
 74
     0
 49
-2.54
 74
     0
  0
LTYPE
  5
72
330
5
100
AcDbSymbolTableRecord
100
AcDbLinetypeTableRecord
  2
DOT2
 70
     0
  3
Dot (.5x) ........................................
 72
    65
 73
     2
 40
0.635
 49
0.0
 74
     0
 49
-0.635
 74
     0
  0
ENDTAB
  0
TABLE
  2
LAYER
  5
2
330
0
100
AcDbSymbolTable
 70
    17
  0
LAYER
  5
10
330
2
100
AcDbSymbolTableRecord
100
AcDbLayerTableRecord
  2
0
 70
     0
 62
     7
  6
Continuous
370
    -3
390
F
  0
LAYER
  5
73
330
2
100
AcDbSymbolTableRecord
100
AcDbLayerTableRecord
  2
FORMAT
 70
     0
 62
     7
  6
Continuous
370
    -3
390
F
  0
LAYER
  5
74
330
2
100
AcDbSymbolTableRecord
100
AcDbLayerTableRecord
  2
YARDIMCI_GEOMETRI
 70
     0
 62
    -6
  6
Continuous
290
     0
370
    -3
390
F
  0
LAYER
  5
75
330
2
100
AcDbSymbolTableRecord
100
AcDbLayerTableRecord
  2
SAYFA_CERCEVESI
 70
     0
 62
     7
  6
Continuous
370
    25
390
F
  0
LAYER
  5
76
330
2
100
AcDbSymbolTableRecord
100
AcDbLayerTableRecord
  2
ANTET
 70
     0
 62
     7
  6
Continuous
370
    -3
390
F
  0
LAYER
  5
77
330
2
100
AcDbSymbolTableRecord
100
AcDbLayerTableRecord
  2
OLCU
 70
     0
 62
   150
  6
Continuous
370
    -3
390
F
  0
LAYER
  5
78
330
2
100
AcDbSymbolTableRecord
100
AcDbLayerTableRecord
  2
METIN
 70
     0
 62
    96
  6
Continuous
370
    -3
390
F
  0
LAYER
  5
79
330
2
100
AcDbSymbolTableRecord
100
AcDbLayerTableRecord
  2
BALON
 70
     0
 62
     5
  6
Continuous
370
    -3
390
F
  0
LAYER
  5
7A
330
2
100
AcDbSymbolTableRecord
100
AcDbLayerTableRecord
  2
VURGU
 70
     0
 62
     7
  6
Continuous
370
    -3
390
F
  0
LAYER
  5
7B
330
2
100
AcDbSymbolTableRecord
100
AcDbLayerTableRecord
  2
SILIK
 70
     0
 62
     7
  6
Continuous
370
    -3
390
F
  0
LAYER
  5
7C
330
2
100
AcDbSymbolTableRecord
100
AcDbLayerTableRecord
  2
MODEL
 70
     0
 62
     7
  6
Continuous
370
    -3
390
F
  0
LAYER
  5
7D
330
2
100
AcDbSymbolTableRecord
100
AcDbLayerTableRecord
  2
DETAYLANDıRMA
 70
     0
 62
   190
  6
Continuous
370
    -3
390
F
  0
LAYER
  5
7E
330
2
100
AcDbSymbolTableRecord
100
AcDbLayerTableRecord
  2
TOLERANS
 70
     0
 62
   230
  6
Continuous
370
    -3
390
F
  0
LAYER
  5
7F
330
2
100
AcDbSymbolTableRecord
100
AcDbLayerTableRecord
  2
MERKEZ_CIZGILERI
 70
     0
 62
    30
  6
Continuous
370
    -3
390
F
  0
LAYER
  5
80
330
2
100
AcDbSymbolTableRecord
100
AcDbLayerTableRecord
  2
KESIT-DETAY_CIZGILERI
 70
     0
 62
     7
  6
Continuous
370
    -3
390
F
  0
LAYER
  5
81
330
2
100
AcDbSymbolTableRecord
100
AcDbLayerTableRecord
  2
\U+041E\U+0421\U+0415\U+0412\U+042B\U+0415
 70
     0
 62
     7
  6
Continuous
370
    -3
390
F
  0
LAYER
  5
82
330
2
100
AcDbSymbolTableRecord
100
AcDbLayerTableRecord
  2
\U+0412\U+041E\U+0414\U+042F\U+041D\U+042B\U+0415_\U+0417\U+041D\U+0410\U+041A\U+0418
 70
     0
 62
    11
  6
Continuous
370
    -3
390
F
  0
ENDTAB
  0
TABLE
  2
STYLE
  5
3
330
0
100
AcDbSymbolTable
 70
     1
  0
STYLE
  5
11
330
3
100
AcDbSymbolTableRecord
100
AcDbTextStyleTableRecord
  2
Standard
 70
     0
 40
0.0
 41
1.0
 50
0.0
 71
     0
 42
3.5
  3
txt
  4

  0
ENDTAB
  0
TABLE
  2
VIEW
  5
6
330
0
100
AcDbSymbolTable
 70
     0
  0
ENDTAB
  0
TABLE
  2
UCS
  5
7
330
0
100
AcDbSymbolTable
 70
     0
  0
ENDTAB
  0
TABLE
  2
APPID
  5
9
330
0
100
AcDbSymbolTable
 70
     1
  0
APPID
  5
12
330
9
100
AcDbSymbolTableRecord
100
AcDbRegAppTableRecord
  2
ACAD
 70
     0
  0
ENDTAB
  0
TABLE
  2
DIMSTYLE
  5
A
330
0
100
AcDbSymbolTable
 70
     1
100
AcDbDimStyleTable
  0
DIMSTYLE
105
27
330
A
100
AcDbSymbolTableRecord
100
AcDbDimStyleTableRecord
  2
ISO-25
 70
     0
 41
2.5
 42
0.625
 43
3.75
 44
1.25
 73
     0
 74
     0
 77
     1
 78
     8
140
2.5
141
2.5
143
0.0393700787
147
0.625
171
     3
172
     1
178
     0
271
     2
272
     2
274
     3
278
    44
283
     0
284
     8
340
11
  0
ENDTAB
  0
TABLE
  2
BLOCK_RECORD
  5
1
330
0
100
AcDbSymbolTable
 70
     3
  0
BLOCK_RECORD
  5
1F
330
1
100
AcDbSymbolTableRecord
100
AcDbBlockTableRecord
  2
*Model_Space
340
22
  0
BLOCK_RECORD
  5
1B
330
1
100
AcDbSymbolTableRecord
100
AcDbBlockTableRecord
  2
*Paper_Space
340
1E
  0
BLOCK_RECORD
  5
23
330
1
100
AcDbSymbolTableRecord
100
AcDbBlockTableRecord
  2
*Paper_Space0
340
26
  0
BLOCK_RECORD
  5
A5
330
1
100
AcDbSymbolTableRecord
100
AcDbBlockTableRecord
  2
SW_CENTERMARKSYMBOL_0
340
0
102
{BLKREFS
331
B0
102
}
  0
BLOCK_RECORD
  5
C3
330
1
100
AcDbSymbolTableRecord
100
AcDbBlockTableRecord
  2
SW_CENTERMARKSYMBOL_1
340
0
102
{BLKREFS
331
CE
102
}
  0
ENDTAB
  0
ENDSEC
  0
SECTION
  2
BLOCKS
  0
BLOCK
  5
20
330
1F
100
AcDbEntity
  8
0
100
AcDbBlockBegin
  2
*Model_Space
 70
     0
 10
0.0
 20
0.0
 30
0.0
  3
*Model_Space
  1

  0
ENDBLK
  5
21
330
1F
100
AcDbEntity
  8
0
100
AcDbBlockEnd
  0
BLOCK
  5
1C
330
1B
100
AcDbEntity
 67
     1
  8
0
100
AcDbBlockBegin
  2
*Paper_Space
 70
     0
 10
0.0
 20
0.0
 30
0.0
  3
*Paper_Space
  1

  0
ENDBLK
  5
1D
330
1B
100
AcDbEntity
 67
     1
  8
0
100
AcDbBlockEnd
  0
BLOCK
  5
24
330
23
100
AcDbEntity
  8
0
100
AcDbBlockBegin
  2
*Paper_Space0
 70
     0
 10
0.0
 20
0.0
 30
0.0
  3
*Paper_Space0
  1

  0
ENDBLK
  5
25
330
23
100
AcDbEntity
  8
0
100
AcDbBlockEnd
  0
BLOCK
  5
A6
330
A5
100
AcDbEntity
  8
0
100
AcDbBlockBegin
  2
SW_CENTERMARKSYMBOL_0
 70
     0
 10
0.0
 20
0.0
 30
0.0
  3
SW_CENTERMARKSYMBOL_0
  1

  0
LINE
  5
A8
330
A5
100
AcDbEntity
  8
FORMAT
 62
     0
100
AcDbLine
 10
0.0
 20
0.0
 30
0.0
 11
0.0
 21
2.5
 31
0.0
  0
LINE
  5
A9
330
A5
100
AcDbEntity
  8
FORMAT
 62
     0
100
AcDbLine
 10
0.0
 20
0.0
 30
0.0
 11
-2.5
 21
0.0
 31
0.0
  0
LINE
  5
AA
330
A5
100
AcDbEntity
  8
FORMAT
 62
     0
100
AcDbLine
 10
0.0
 20
0.0
 30
0.0
 11
0.0
 21
-2.5
 31
0.0
  0
LINE
  5
AB
330
A5
100
AcDbEntity
  8
FORMAT
 62
     0
100
AcDbLine
 10
0.0
 20
0.0
 30
0.0
 11
2.5
 21
0.0
 31
0.0
  0
LINE
  5
AC
330
A5
100
AcDbEntity
  8
FORMAT
 62
     0
100
AcDbLine
 10
0.0
 20
5.0
 30
0.0
 11
0.0
 21
57.5
 31
0.0
  0
LINE
  5
AD
330
A5
100
AcDbEntity
  8
FORMAT
 62
     0
100
AcDbLine
 10
-5.0
 20
0.0
 30
0.0
 11
-57.5
 21
0.0
 31
0.0
  0
LINE
  5
AE
330
A5
100
AcDbEntity
  8
FORMAT
 62
     0
100
AcDbLine
 10
0.0
 20
-5.0
 30
0.0
 11
0.0
 21
-57.5
 31
0.0
  0
LINE
  5
AF
330
A5
100
AcDbEntity
  8
FORMAT
 62
     0
100
AcDbLine
 10
5.0
 20
0.0
 30
0.0
 11
57.5
 21
0.0
 31
0.0
  0
ENDBLK
  5
A7
330
A5
100
AcDbEntity
  8
0
100
AcDbBlockEnd
  0
BLOCK
  5
C4
330
C3
100
AcDbEntity
  8
0
100
AcDbBlockBegin
  2
SW_CENTERMARKSYMBOL_1
 70
     0
 10
0.0
 20
0.0
 30
0.0
  3
SW_CENTERMARKSYMBOL_1
  1

  0
LINE
  5
C6
330
C3
100
AcDbEntity
  8
FORMAT
 62
     0
100
AcDbLine
 10
0.0
 20
0.0
 30
0.0
 11
0.0
 21
2.5
 31
0.0
  0
LINE
  5
C7
330
C3
100
AcDbEntity
  8
FORMAT
 62
     0
100
AcDbLine
 10
0.0
 20
0.0
 30
0.0
 11
-2.5
 21
0.0
 31
0.0
  0
LINE
  5
C8
330
C3
100
AcDbEntity
  8
FORMAT
 62
     0
100
AcDbLine
 10
0.0
 20
0.0
 30
0.0
 11
0.0
 21
-2.5
 31
0.0
  0
LINE
  5
C9
330
C3
100
AcDbEntity
  8
FORMAT
 62
     0
100
AcDbLine
 10
0.0
 20
0.0
 30
0.0
 11
2.5
 21
0.0
 31
0.0
  0
LINE
  5
CA
330
C3
100
AcDbEntity
  8
FORMAT
 62
     0
100
AcDbLine
 10
0.0
 20
5.0
 30
0.0
 11
0.0
 21
57.5
 31
0.0
  0
LINE
  5
CB
330
C3
100
AcDbEntity
  8
FORMAT
 62
     0
100
AcDbLine
 10
-5.0
 20
0.0
 30
0.0
 11
-57.5
 21
0.0
 31
0.0
  0
LINE
  5
CC
330
C3
100
AcDbEntity
  8
FORMAT
 62
     0
100
AcDbLine
 10
0.0
 20
-5.0
 30
0.0
 11
0.0
 21
-57.5
 31
0.0
  0
LINE
  5
CD
330
C3
100
AcDbEntity
  8
FORMAT
 62
     0
100
AcDbLine
 10
5.0
 20
0.0
 30
0.0
 11
57.5
 21
0.0
 31
0.0
  0
ENDBLK
  5
C5
330
C3
100
AcDbEntity
  8
0
100
AcDbBlockEnd
  0
ENDSEC
  0
SECTION
  2
ENTITIES
  0
LINE
  5
83
330
1F
100
AcDbEntity
  8
0
  6
Continuous
 62
     7
370
    25
100
AcDbLine
 10
65.1094141365
 20
93.8066686881
 30
0.0
 11
65.1094141365
 21
-11.4115853416
 31
0.0
  0
LINE
  5
84
330
1F
100
AcDbEntity
  8
0
  6
Continuous
 62
     7
370
    25
100
AcDbLine
 10
175.1094135405
 20
-11.4115853416
 30
0.0
 11
175.1094135405
 21
93.8066686881
 31
0.0
  0
ARC
  5
85
330
1F
100
AcDbEntity
  8
0
  6
Continuous
 62
     7
370
    25
100
AcDbCircle
 10
175.1094138385
 20
93.8066687278
 30
0.0
 40
110.0
100
AcDbArc
 50
135.0
 51
180.0
  0
LINE
  5
86
330
1F
100
AcDbEntity
  8
0
  6
Continuous
 62
     7
370
    25
100
AcDbLine
 10
173.2185418667
 20
247.4792818916
 30
0.0
 11
97.3276673765
 21
171.5884129894
 31
0.0
  0
LINE
  5
87
330
1F
100
AcDbEntity
  8
0
  6
Continuous
 62
     7
370
    25
100
AcDbLine
 10
175.1094135405
 20
93.8066686881
 30
0.0
 11
251.0002898933
 21
169.6975450409
 31
0.0
  0
LINE
  5
88
330
1F
100
AcDbEntity
  8
0
  6
Continuous
 62
     7
370
    25
100
AcDbLine
 10
120.1094138385
 20
-11.4115853416
 30
0.0
 11
175.1094135405
 21
-11.4115853416
 31
0.0
  0
LINE
  5
89
330
1F
100
AcDbEntity
  8
0
  6
Continuous
 62
     7
370
    25
100
AcDbLine
 10
65.1094141365
 20
-11.4115853416
 30
0.0
 11
120.1094138385
 21
-11.4115853416
 31
0.0
  0
LWPOLYLINE
  5
8A
330
1F
100
AcDbEntity
  8
0
  6
Continuous
 62
     7
370
    25
100
AcDbPolyline
 90
       26
 70
   128
 43
0.0
 10
212.1094140173
 20
208.5884134663
 10
214.6268161894
 20
206.0710112942
 10
217.1336534382
 20
203.5641740454
 10
219.6194204451
 20
201.0784070385
 10
222.0736863972
 20
198.6241410864
 10
224.4861620427
 20
196.2116728914
 10
226.8467220427
 20
193.8511054409
 10
229.145472026
 20
191.5523629082
 10
231.3727634908
 20
189.3250714434
 10
233.5192608596
 20
187.1785740746
 10
235.5759563805
 20
185.1218711031
 10
237.5342222811
 20
183.1636052025
 10
239.3858480216
 20
181.3119720114
 10
241.1230700971
 20
179.5747499359
 10
242.7386018397
 20
177.9592256439
 10
244.2256557704
 20
176.4721642626
 10
245.5780106546
 20
175.1198242796
 10
246.7899816991
 20
173.9078532351
 10
247.8564876081
 20
172.8413324249
 10
248.7730729343
 20
171.9247619999
 10
249.5358633758
 20
171.1619715584
 10
250.1416700841
 20
170.5561499489
 10
250.587974763
 20
170.1098601711
 10
250.8728700639
 20
169.8249499691
 10
250.9951936961
 20
169.702641238
 10
251.0002898933
 20
169.6975450409
  0
LWPOLYLINE
  5
8B
330
1F
100
AcDbEntity
  8
0
  6
Continuous
 62
     7
370
    25
100
AcDbPolyline
 90
       26
 70
   128
 43
0.0
 10
173.2185418667
 20
247.4792818916
 10
173.2236417891
 20
247.4741856945
 10
173.3459542455
 20
247.3518769634
 10
173.6308569969
 20
247.0669667614
 10
174.0771504999
 20
246.6206769837
 10
174.6829646589
 20
246.0148553742
 10
175.445762551
 20
245.2520649326
 10
176.3623367013
 20
244.3354945076
 10
177.4288463355
 20
243.2689885986
 10
178.6408173801
 20
242.0570175541
 10
179.9931685389
 20
240.7046477688
 10
181.4802299203
 20
239.2176012886
 10
183.0957579376
 20
237.6020769966
 10
184.832980013
 20
235.8648549212
 10
186.6846057535
 20
234.0132217301
 10
188.6428716542
 20
232.0549558294
 10
190.699567175
 20
229.998252858
 10
192.8460645438
 20
227.8517703903
 10
195.0733560087
 20
225.6244640244
 10
197.372105992
 20
223.3257214916
 10
199.7326659919
 20
220.9651689423
 10
202.1451416374
 20
218.5526858461
 10
204.5994075896
 20
216.098419894
 10
207.0851745964
 20
213.6126528872
 10
209.5920118452
 20
211.1058156384
 10
212.1094140173
 20
208.5884134663
  0
LINE
  5
8C
330
1F
100
AcDbEntity
  8
0
  6
Continuous
 62
     1
370
    25
100
AcDbLine
 10
65.1094141365
 20
93.8066686881
 30
0.0
 11
175.1094135405
 21
93.8066686881
 31
0.0
  0
LWPOLYLINE
  5
8D
330
1F
100
AcDbEntity
  8
0
  6
Continuous
 62
     1
370
    25
100
AcDbPolyline
 90
       50
 70
   128
 43
0.0
 10
97.3276673765
 20
171.5884129894
 10
97.3480633409
 20
171.5680132998
 10
97.5111006708
 20
171.4049796951
 10
97.8364880146
 20
171.0795979393
 10
98.3228656412
 20
170.5932240379
 10
98.9681883664
 20
169.9478994501
 10
99.769753492
 20
169.146321286
 10
100.7241970809
 20
168.1918870104
 10
101.8275181712
 20
167.0885603321
 10
103.0750843645
 20
165.8410053146
 10
104.4616672159
 20
164.4544224632
 10
105.9814487533
 20
162.9346381319
 10
107.6280559362
 20
161.2880300177
 10
109.3945811452
 20
159.5214973581
 10
111.2736157091
 20
157.6424609316
 10
113.2572773793
 20
155.6588034523
 10
115.3372466513
 20
153.5788397682
 10
117.5047993609
 20
151.4112870587
 10
119.750844199
 20
149.1652350319
 10
122.0659602848
 20
146.850116123
 10
124.4404372708
 20
144.4756458891
 10
126.8643155643
 20
142.0517634047
 10
129.3274286152
 20
139.588661064
 10
131.8194457279
 20
137.0966355694
 10
134.3299132721
 20
134.5861624373
 10
136.8483035774
 20
132.0677767885
 10
139.3640517206
 20
129.5520286453
 10
141.8666067482
 20
127.049482931
 10
144.3454726548
 20
124.5706151617
 10
146.7902502925
 20
122.1258263481
 10
149.1906857998
 20
119.7253982914
 10
151.5367115797
 20
117.3793743742
 10
153.8184891404
 20
115.0975893629
 10
156.0264463486
 20
112.8896396053
 10
158.1513221325
 20
110.7647638214
 10
160.1842055978
 20
108.7318803561
 10
162.1165658296
 20
106.7995201243
 10
163.9403003217
 20
104.9757819069
 10
165.647761053
 20
103.2683174503
 10
167.2317880155
 20
101.6842942131
 10
168.6857315661
 20
100.2303506625
 10
170.0034971298
 20
98.9125813735
 10
171.1795601012
 20
97.7365221274
 10
172.2089807452
 20
96.7071052087
 10
173.0874451758
 20
95.8286370528
 10
173.8112690808
 20
95.1048131478
 10
174.3774163486
 20
94.53866588
 10
174.7835139693
 20
94.1325719846
 10
175.0278520347
 20
93.8882301939
 10
175.1094135405
 20
93.8066686881
  0
LINE
  5
8E
330
1F
100
AcDbEntity
  8
0
  6
Continuous
 62
     7
370
    25
100
AcDbLine
 10
-163.8213368481
 20
208.5884134663
 30
0.0
 11
-163.8213368481
 21
132.6975445641
 31
0.0
  0
LINE
  5
8F
330
1F
100
AcDbEntity
  8
0
  6
Continuous
 62
     7
370
    25
100
AcDbLine
 10
-53.8213374441
 20
132.6975445641
 30
0.0
 11
-53.8213374441
 21
208.5884134663
 31
0.0
  0
LINE
  5
90
330
1F
100
AcDbEntity
  8
0
  6
Continuous
 62
     7
370
    25
100
AcDbLine
 10
-163.8213368481
 20
132.6975445641
 30
0.0
 11
-163.8213368481
 21
93.8066686881
 31
0.0
  0
LINE
  5
91
330
1F
100
AcDbEntity
  8
0
  6
Continuous
 62
     7
370
    25
100
AcDbLine
 10
-53.8213374441
 20
93.8066686881
 30
0.0
 11
-53.8213374441
 21
132.6975445641
 31
0.0
  0
LINE
  5
92
330
1F
100
AcDbEntity
  8
0
  6
Continuous
 62
     7
370
    25
100
AcDbLine
 10
-163.8213368481
 20
93.8066686881
 30
0.0
 11
-163.8213368481
 21
-11.4115853416
 31
0.0
  0
LINE
  5
93
330
1F
100
AcDbEntity
  8
0
  6
Continuous
 62
     7
370
    25
100
AcDbLine
 10
-53.8213374441
 20
-11.4115853416
 30
0.0
 11
-53.8213374441
 21
93.8066686881
 31
0.0
  0
LWPOLYLINE
  5
94
330
1F
100
AcDbEntity
  8
0
  6
Continuous
 62
     7
370
    25
100
AcDbPolyline
 90
       98
 70
   128
 43
0.0
 10
-163.8213368481
 20
208.5884134663
 10
-163.7059944099
 20
206.0710112942
 10
-163.3604439324
 20
203.5641740454
 10
-162.7861382788
 20
201.0784070385
 10
-161.9854839867
 20
198.6241410864
 10
-160.9618412679
 20
196.2116728914
 10
-159.7195053821
 20
193.8511054409
 10
-158.2636842852
 20
191.5523629082
 10
-156.600483728
 20
189.3250714434
 10
-154.7368811792
 20
187.1785740746
 10
-152.6806922978
 20
185.1218711031
 10
-150.4405411308
 20
183.1636052025
 10
-148.0258265858
 20
181.3119720114
 10
-145.4466740018
 20
179.5747499359
 10
-142.7139016216
 20
177.9592256439
 10
-139.8389740264
 20
176.4721642626
 10
-136.8339462554
 20
175.1198242796
 10
-133.7114228284
 20
173.9078532351
 10
-130.4845037287
 20
172.8413324249
 10
-127.1667210733
 20
171.9247619999
 10
-123.7719906842
 20
171.1619715584
 10
-120.3145534148
 20
170.5561499489
 10
-116.8089090263
 20
170.1098601711
 10
-113.2697612395
 20
169.8249499691
 10
-109.7119559184
 20
169.702641238
 10
-106.1504148295
 20
169.7434257162
 10
-102.6000767363
 20
169.9471394909
 10
-99.075832439
 20
170.3129331959
 10
-95.5924643552
 20
170.8392571104
 10
-92.1645826077
 20
171.5239207638
 10
-88.8065649545
 20
172.3640482319
 10
-85.5324967181
 20
173.3561079395
 10
-82.3561093187
 20
174.4959573639
 10
-79.2907281196
 20
175.7787834299
 10
-76.3492072349
 20
177.1992366207
 10
-73.5438848262
 20
178.7513415707
 10
-70.8865309482
 20
180.4286013735
 10
-68.3882842189
 20
182.2239677799
 10
-66.0596313303
 20
184.1299157036
 10
-63.9103362685
 20
186.1384432209
 10
-61.9494105106
 20
188.241146077
 10
-60.1850869482
 20
190.4291878832
 10
-58.6247565573
 20
192.6933895243
 10
-57.2749683982
 20
195.0242738617
 10
-56.1413849121
 20
197.4120359314
 10
-55.2287595695
 20
199.8466919554
 10
-54.5409182435
 20
202.3180048359
 10
-54.0807480341
 20
204.8156182659
 10
-53.8501823669
 20
207.3290567291
 10
-53.8501823669
 20
209.8477702034
 10
-54.0807480341
 20
212.3612086666
 10
-54.5409182435
 20
214.8588220966
 10
-55.2287595695
 20
217.3301349772
 10
-56.1413849121
 20
219.7647910011
 10
-57.2749683982
 20
222.1525530708
 10
-58.6247565573
 20
224.4834374083
 10
-60.1850869482
 20
226.7476390493
 10
-61.9494105106
 20
228.9356808556
 10
-63.9103362685
 20
231.0383837116
 10
-66.0596313303
 20
233.046911229
 10
-68.3882842189
 20
234.9528591526
 10
-70.8865309482
 20
236.7482255591
 10
-73.5438848262
 20
238.4254853619
 10
-76.3492072349
 20
239.9775903118
 10
-79.2907281196
 20
241.3980286015
 10
-82.3561093187
 20
242.6808695686
 10
-85.5324967181
 20
243.820718993
 10
-88.8065649545
 20
244.8127787006
 10
-92.1645826077
 20
245.6529061688
 10
-95.5924643552
 20
246.337554921
 10
-99.075832439
 20
246.8638937367
 10
-102.6000767363
 20
247.2296874416
 10
-106.1504148295
 20
247.4334161175
 10
-109.7119559184
 20
247.4741856945
 10
-113.2697612395
 20
247.3518769634
 10
-116.8089090263
 20
247.0669667614
 10
-120.3145534148
 20
246.6206769837
 10
-123.7719906842
 20
246.0148553742
 10
-127.1667210733
 20
245.2520649326
 10
-130.4845037287
 20
244.3354945076
 10
-133.7114228284
 20
243.2689885986
 10
-136.8339462554
 20
242.0570175541
 10
-139.8389740264
 20
240.7046477688
 10
-142.7139016216
 20
239.2176012886
 10
-145.4466740018
 20
237.6020769966
 10
-148.0258265858
 20
235.8648549212
 10
-150.4405411308
 20
234.0132217301
 10
-152.6806922978
 20
232.0549558294
 10
-154.7368811792
 20
229.998252858
 10
-156.600483728
 20
227.8517703903
 10
-158.2636842852
 20
225.6244640244
 10
-159.7195053821
 20
223.3257214916
 10
-160.9618412679
 20
220.9651689423
 10
-161.9854839867
 20
218.5526858461
 10
-162.7861382788
 20
216.098419894
 10
-163.3604439324
 20
213.6126528872
 10
-163.7059944099
 20
211.1058156384
 10
-163.8213368481
 20
208.5884134663
  0
LWPOLYLINE
  5
95
330
1F
100
AcDbEntity
  8
0
  6
Continuous
 62
     7
370
    25
100
AcDbPolyline
 90
       92
 70
   128
 43
0.0
 10
-157.2213368838
 20
208.5884134663
 10
-157.1060130721
 20
210.9495620621
 10
-156.7605892544
 20
213.2994602812
 10
-156.1867157345
 20
215.6269173515
 10
-155.3871231502
 20
217.9208170069
 10
-154.3656224733
 20
220.1702515972
 10
-153.1270863836
 20
222.3644922865
 10
-151.6774082905
 20
224.4930784596
 10
-150.0235023325
 20
226.5458773268
 10
-148.1732512241
 20
228.5131137264
 10
-146.1354690021
 20
230.3853850258
 10
-143.9198712235
 20
232.1537803305
 10
-141.5370079106
 20
233.8098804844
 10
-138.9982430613
 20
235.3457878721
 10
-136.3156708306
 20
236.7541860235
 10
-133.5020745521
 20
238.0283694161
 10
-130.570865271
 20
239.1622583759
 10
-127.536007238
 20
240.1504139794
 10
-124.4119666865
 20
240.988187064
 10
-121.2136289453
 20
241.6715841187
 10
-117.956236971
 20
242.1972970856
 10
-114.6553126512
 20
242.562852372
 10
-111.3265867228
 20
242.7664916409
 10
-107.985922112
 20
242.8072910202
 10
-104.6492387889
 20
242.6849822891
 10
-101.3324372819
 20
242.4002210987
 10
-98.0513235902
 20
241.9543187512
 10
-94.8215341544
 20
241.3494210137
 10
-91.6584609425
 20
240.5883889092
 10
-88.577176479
 20
239.674858321
 10
-85.5923639959
 20
238.6131803883
 10
-82.7182466512
 20
237.4084513081
 10
-79.9685242003
 20
236.066363324
 10
-77.3562984889
 20
234.5933239353
 10
-74.8940194374
 20
232.9963813913
 10
-72.5934179848
 20
231.2831054819
 10
-70.4654576605
 20
229.4616769446
 10
-68.52028243
 20
227.5407831562
 10
-66.7671608155
 20
225.5295734299
 10
-65.214444918
 20
223.4376441134
 10
-63.8695368891
 20
221.2749342812
 10
-62.738840503
 20
219.051770438
 10
-61.8277537053
 20
216.7787473095
 10
-61.1406090086
 20
214.4666980398
 10
-60.6806883937
 20
212.1266196859
 10
-60.4501786059
 20
209.7696881188
 10
-60.4501786059
 20
207.4071388138
 10
-60.6806883937
 20
205.0502072466
 10
-61.1406090086
 20
202.7101437939
 10
-61.8277537053
 20
200.398079623
 10
-62.738840503
 20
198.1250564945
 10
-63.8695368891
 20
195.9018926514
 10
-65.214444918
 20
193.7391977203
 10
-66.7671608155
 20
191.6472535027
 10
-68.52028243
 20
189.6360437763
 10
-70.4654576605
 20
187.715149988
 10
-72.5934179848
 20
185.8937214506
 10
-74.8940194374
 20
184.1804604424
 10
-77.3562984889
 20
182.5835029972
 10
-79.9685242003
 20
181.1104636086
 10
-82.7182466512
 20
179.7683756245
 10
-85.5923639959
 20
178.5636316431
 10
-88.577176479
 20
177.5019686115
 10
-91.6584609425
 20
176.5884529245
 10
-94.8215341544
 20
175.8274208201
 10
-98.0513235902
 20
175.2225081814
 10
-101.3324372819
 20
174.7766058338
 10
-104.6492387889
 20
174.4918297423
 10
-107.985922112
 20
174.3695508135
 10
-111.3265867228
 20
174.4103203905
 10
-114.6553126512
 20
174.6139745606
 10
-117.956236971
 20
174.979529847
 10
-121.2136289453
 20
175.505257715
 10
-124.4119666865
 20
176.1886249674
 10
-127.536007238
 20
177.026398052
 10
-130.570865271
 20
178.0145834578
 10
-133.5020745521
 20
179.1484724177
 10
-136.3156708306
 20
180.422640909
 10
-138.9982430613
 20
181.8310390604
 10
-141.5370079106
 20
183.3669464481
 10
-143.9198712235
 20
185.0230466021
 10
-146.1354690021
 20
186.7914419067
 10
-148.1732512241
 20
188.6637281073
 10
-150.0235023325
 20
190.6309496058
 10
-151.6774082905
 20
192.683748473
 10
-153.1270863836
 20
194.812334646
 10
-154.3656224733
 20
197.0065753353
 10
-155.3871231502
 20
199.2560099257
 10
-156.1867157345
 20
201.549909581
 10
-156.7605892544
 20
203.8773666514
 10
-157.1060130721
 20
206.2272648705
 10
-157.2213368838
 20
208.5884134663
  0
LINE
  5
96
330
1F
100
AcDbEntity
  8
0
  6
Continuous
 62
     7
370
    25
100
AcDbLine
 10
-163.8213368481
 20
-11.4115853416
 30
0.0
 11
-53.8213374441
 21
-11.4115853416
 31
0.0
  0
LWPOLYLINE
  5
97
330
1F
100
AcDbEntity
  8
0
  6
Continuous
 62
     1
370
    25
100
AcDbPolyline
 90
       26
 70
   128
 43
0.0
 10
-108.8213371461
 20
93.8066686881
 10
-105.2611971157
 20
93.8882301939
 10
-101.7159894457
 20
94.1325719846
 10
-98.2005847966
 20
94.53866588
 10
-94.7297262376
 20
95.1048131478
 10
-91.3179731345
 20
95.8286370528
 10
-87.9796361899
 20
96.7071052087
 10
-84.7287150448
 20
97.7365221274
 10
-81.578847987
 20
98.9125813735
 10
-78.5432448959
 20
100.2303506625
 10
-75.634636951
 20
101.6842942131
 10
-72.8652263408
 20
103.2683174503
 10
-70.2466303831
 20
104.9757819069
 10
-67.7898275083
 20
106.7995201243
 10
-65.50512932
 20
108.7318803561
 10
-63.4021098142
 20
110.7647638214
 10
-61.4895942038
 20
112.8896396053
 10
-59.7756067639
 20
115.0975893629
 10
-58.2673335796
 20
117.3793743742
 10
-56.9711001938
 20
119.7253982914
 10
-55.8923492556
 20
122.1258263481
 10
-55.0355958169
 20
124.5706151617
 10
-54.4044385081
 20
127.049482931
 10
-54.0015260106
 20
129.5520286453
 10
-53.8285496062
 20
132.0677767885
 10
-53.8213374441
 20
132.6975445641
  0
LWPOLYLINE
  5
98
330
1F
100
AcDbEntity
  8
0
  6
Continuous
 62
     1
370
    25
100
AcDbPolyline
 90
       26
 70
   128
 43
0.0
 10
-163.8213368481
 20
132.6975445641
 10
-163.8141246861
 20
132.0677767885
 10
-163.6411482816
 20
129.5520286453
 10
-163.2382357841
 20
127.049482931
 10
-162.6070784753
 20
124.5706151617
 10
-161.7503250366
 20
122.1258263481
 10
-160.6715740984
 20
119.7253982914
 10
-159.3753407126
 20
117.3793743742
 10
-157.8670675283
 20
115.0975893629
 10
-156.1530800884
 20
112.8896396053
 10
-154.240564478
 20
110.7647638214
 10
-152.1375449722
 20
108.7318803561
 10
-149.8528467839
 20
106.7995201243
 10
-147.3960439091
 20
104.9757819069
 10
-144.7774479514
 20
103.2683174503
 10
-142.0080373412
 20
101.6842942131
 10
-139.0994293963
 20
100.2303506625
 10
-136.0638263052
 20
98.9125813735
 10
-132.9139592474
 20
97.7365221274
 10
-129.6630381023
 20
96.7071052087
 10
-126.3247011578
 20
95.8286370528
 10
-122.9129480546
 20
95.1048131478
 10
-119.4420894956
 20
94.53866588
 10
-115.9266848465
 20
94.1325719846
 10
-112.3814771766
 20
93.8882301939
 10
-108.8213371461
 20
93.8066686881
  0
LINE
  5
99
330
1F
100
AcDbEntity
  8
0
  6
Continuous
 62
     1
370
    25
100
AcDbLine
 10
-108.8213371461
 20
93.8066686881
 30
0.0
 11
-53.8213374441
 21
93.8066686881
 31
0.0
  0
LINE
  5
9A
330
1F
100
AcDbEntity
  8
0
  6
Continuous
 62
     1
370
    25
100
AcDbLine
 10
-163.8213368481
 20
93.8066686881
 30
0.0
 11
-108.8213371461
 21
93.8066686881
 31
0.0
  0
LINE
  5
9B
330
1F
100
AcDbEntity
  8
0
  6
Continuous
 62
     7
370
    25
100
AcDbLine
 10
212.1094140173
 20
435.361611295
 30
0.0
 11
136.2185413898
 21
435.361611295
 31
0.0
  0
LINE
  5
9C
330
1F
100
AcDbEntity
  8
0
  6
Continuous
 62
     7
370
    25
100
AcDbLine
 10
136.2185413898
 20
325.3616118911
 30
0.0
 11
212.1094140173
 21
325.3616118911
 31
0.0
  0
LINE
  5
9D
330
1F
100
AcDbEntity
  8
0
  6
Continuous
 62
     7
370
    25
100
AcDbLine
 10
136.2185413898
 20
435.361611295
 30
0.0
 11
120.1094138385
 21
435.361611295
 31
0.0
  0
LINE
  5
9E
330
1F
100
AcDbEntity
  8
0
  6
Continuous
 62
     7
370
    25
100
AcDbLine
 10
120.1094138385
 20
325.3616118911
 30
0.0
 11
136.2185413898
 21
325.3616118911
 31
0.0
  0
CIRCLE
  5
9F
330
1F
100
AcDbEntity
  8
0
  6
Continuous
 62
     7
370
    25
100
AcDbCircle
 10
120.1094138385
 20
380.361611593
 30
0.0
 40
48.39999999999998
  0
CIRCLE
  5
A0
330
1F
100
AcDbEntity
  8
0
  6
Continuous
 62
     7
370
    25
100
AcDbCircle
 10
120.1094138385
 20
380.361611593
 30
0.0
 40
55.0
  0
LWPOLYLINE
  5
A1
330
1F
100
AcDbEntity
  8
0
  6
Continuous
 62
     7
370
    25
100
AcDbPolyline
 90
       50
 70
   128
 43
0.0
 10
212.1094140173
 20
435.361611295
 10
214.6268161894
 20
435.2462688568
 10
217.1336534382
 20
434.9007183793
 10
219.6194204451
 20
434.3264127257
 10
222.0736863972
 20
433.5257584336
 10
224.4861620427
 20
432.5021157148
 10
226.8467220427
 20
431.2597798291
 10
229.145472026
 20
429.8039587322
 10
231.3727634908
 20
428.1407581749
 10
233.5192608596
 20
426.2771556261
 10
235.5759563805
 20
424.2209667447
 10
237.5342222811
 20
421.9808155778
 10
239.3858480216
 20
419.5661010328
 10
241.1230700971
 20
416.9869484487
 10
242.7386018397
 20
414.2541760686
 10
244.2256557704
 20
411.3792484733
 10
245.5780106546
 20
408.3742207023
 10
246.7899816991
 20
405.2516972753
 10
247.8564876081
 20
402.0247781756
 10
248.7730729343
 20
398.7069955203
 10
249.5358633758
 20
395.3122651311
 10
250.1416700841
 20
391.8548278618
 10
250.587974763
 20
388.3491834733
 10
250.8728700639
 20
384.8100356865
 10
250.9951936961
 20
381.2522303653
 10
250.954409218
 20
377.6906892764
 10
250.7506805421
 20
374.1403511832
 10
250.3849017383
 20
370.6161068859
 10
249.8585629226
 20
367.1327388021
 10
249.1738992692
 20
363.7048570546
 10
248.3337718011
 20
360.3468394014
 10
247.3417120935
 20
357.072771165
 10
246.2018775703
 20
353.8963837656
 10
244.9190366031
 20
350.8310025665
 10
243.4985908629
 20
347.8894816819
 10
241.9464859129
 20
345.0841592732
 10
240.2692261101
 20
342.4268053952
 10
238.4738597037
 20
339.9285586658
 10
236.56791178
 20
337.5999057772
 10
234.5593768121
 20
335.4506107154
 10
232.4566814066
 20
333.4896849575
 10
230.2686396004
 20
331.7253613952
 10
228.0044305087
 20
330.1650310042
 10
225.6735536219
 20
328.8152428451
 10
223.2857841016
 20
327.681659359
 10
220.8511355282
 20
326.7690340164
 10
218.3798226477
 20
326.0811926904
 10
215.8822092177
 20
325.621022481
 10
213.3687707545
 20
325.3904568138
 10
212.1094140173
 20
325.3616118911
  0
LWPOLYLINE
  5
A2
330
1F
100
AcDbEntity
  8
0
  6
Continuous
 62
     1
370
    25
100
AcDbPolyline
 90
       26
 70
   128
 43
0.0
 10
175.1094135405
 20
380.361611593
 10
175.0278520347
 20
376.8014715626
 10
174.7835139693
 20
373.2562638926
 10
174.3774163486
 20
369.7408592435
 10
173.8112690808
 20
366.2700006845
 10
173.0874451758
 20
362.8582475814
 10
172.2089807452
 20
359.5199106368
 10
171.1795601012
 20
356.2689894917
 10
170.0034971298
 20
353.1191224339
 10
168.6857315661
 20
350.0835193428
 10
167.2317880155
 20
347.174911398
 10
165.647761053
 20
344.4055007878
 10
163.9403003217
 20
341.78690483
 10
162.1165658296
 20
339.3301019552
 10
160.1842055978
 20
337.0454037669
 10
158.1513221325
 20
334.9423842612
 10
156.0264463486
 20
333.0298686507
 10
153.8184891404
 20
331.3158812108
 10
151.5367115797
 20
329.8076080265
 10
149.1906857998
 20
328.5113746407
 10
146.7902502925
 20
327.4326237026
 10
144.3454726548
 20
326.5758702638
 10
141.8666067482
 20
325.944712955
 10
139.3640517206
 20
325.5418004575
 10
136.8483035774
 20
325.3688240531
 10
136.2185413898
 20
325.3616118911
  0
LWPOLYLINE
  5
A3
330
1F
100
AcDbEntity
  8
0
  6
Continuous
 62
     1
370
    25
100
AcDbPolyline
 90
       26
 70
   128
 43
0.0
 10
136.2185413898
 20
435.361611295
 10
136.8483035774
 20
435.354399133
 10
139.3640517206
 20
435.1814227286
 10
141.8666067482
 20
434.778510231
 10
144.3454726548
 20
434.1473529222
 10
146.7902502925
 20
433.2905994835
 10
149.1906857998
 20
432.2118485453
 10
151.5367115797
 20
430.9156151595
 10
153.8184891404
 20
429.4073419752
 10
156.0264463486
 20
427.6933545354
 10
158.1513221325
 20
425.7808389249
 10
160.1842055978
 20
423.6778194192
 10
162.1165658296
 20
421.3931212309
 10
163.9403003217
 20
418.9363183561
 10
165.647761053
 20
416.3177223983
 10
167.2317880155
 20
413.5483117881
 10
168.6857315661
 20
410.6397038433
 10
170.0034971298
 20
407.6041007521
 10
171.1795601012
 20
404.4542336943
 10
172.2089807452
 20
401.2033125493
 10
173.0874451758
 20
397.8649756047
 10
173.8112690808
 20
394.4532225015
 10
174.3774163486
 20
390.9823639425
 10
174.7835139693
 20
387.4669592935
 10
175.0278520347
 20
383.9217516235
 10
175.1094135405
 20
380.361611593
  0
LWPOLYLINE
  5
A4
330
1F
100
AcDbEntity
  8
0
  6
Continuous
 62
     1
370
    25
100
AcDbPolyline
 90
       42
 70
   128
 43
0.0
 10
129.5459215478
 20
427.8327847007
 10
129.1800430925
 20
427.7269901815
 10
126.8861359866
 20
426.9273975971
 10
124.6367023276
 20
425.9058969202
 10
122.4424614054
 20
424.6673608306
 10
120.3138698045
 20
423.2176827374
 10
118.2610711265
 20
421.5637767794
 10
116.2938481146
 20
419.713525671
 10
114.4215749526
 20
417.675743449
 10
112.6531745256
 20
415.4601456704
 10
110.9970743717
 20
413.0772823575
 10
109.4611651213
 20
410.5385175082
 10
108.0527669699
 20
407.8559452775
 10
106.7785919593
 20
405.0423489991
 10
105.6447113813
 20
402.111139718
 10
104.6565297009
 20
399.0762816849
 10
103.8187547536
 20
395.9522411334
 10
103.1353800507
 20
392.7539033922
 10
102.6096614958
 20
389.4965114179
 10
102.2441043468
 20
386.1955870981
 10
102.0404501767
 20
382.8668611697
 10
101.9996712865
 20
379.5261965589
 10
102.1219595285
 20
376.1895132358
 10
102.40673562
 20
372.8727117288
 10
102.8526398302
 20
369.5915980372
 10
103.457546881
 20
366.3618086013
 10
104.2185752602
 20
363.1987353894
 10
105.1320974664
 20
360.117450926
 10
106.1937614293
 20
357.1326384428
 10
107.3985072733
 20
354.2585210982
 10
108.7405933948
 20
351.5087986472
 10
110.2136244015
 20
348.8965729358
 10
111.8105809153
 20
346.4342938843
 10
113.5238521681
 20
344.1336924317
 10
115.3452741863
 20
342.0057321074
 10
117.2661665776
 20
340.0605568769
 10
119.2773759547
 20
338.3074352625
 10
121.3693176112
 20
336.7547193649
 10
123.5320224376
 20
335.4098113361
 10
125.7551844181
 20
334.27911495
 10
128.0282094092
 20
333.3680281523
 10
129.5459215478
 20
332.8904384854
  0
INSERT
  5
B0
330
1F
100
AcDbEntity
  8
FORMAT
 62
     7
100
AcDbBlockReference
  2
SW_CENTERMARKSYMBOL_0
 10
120.1094138385
 20
380.361611593
 30
0.0
  0
LINE
  5
B1
330
1F
100
AcDbEntity
  8
0
  6
Continuous
 62
     7
370
    25
100
AcDbLine
 10
375.4524486339
 20
93.8066686881
 30
0.0
 11
375.4524486339
 21
-11.4115853416
 31
0.0
  0
LINE
  5
B2
330
1F
100
AcDbEntity
  8
0
  6
Continuous
 62
     7
370
    25
100
AcDbLine
 10
485.4524480378
 20
-11.4115853416
 30
0.0
 11
485.4524480378
 21
93.8066686881
 31
0.0
  0
LINE
  5
B3
330
1F
100
AcDbEntity
  8
0
  6
Continuous
 62
     7
370
    25
100
AcDbLine
 10
485.4524480378
 20
93.8066686881
 30
0.0
 11
485.4524480378
 21
132.6975445641
 31
0.0
  0
LINE
  5
B4
330
1F
100
AcDbEntity
  8
0
  6
Continuous
 62
     7
370
    25
100
AcDbLine
 10
375.4524486339
 20
132.6975445641
 30
0.0
 11
375.4524486339
 21
93.8066686881
 31
0.0
  0
LINE
  5
B5
330
1F
100
AcDbEntity
  8
0
  6
Continuous
 62
     7
370
    25
100
AcDbLine
 10
375.4524486339
 20
208.5884134663
 30
0.0
 11
375.4524486339
 21
132.6975445641
 31
0.0
  0
LINE
  5
B6
330
1F
100
AcDbEntity
  8
0
  6
Continuous
 62
     7
370
    25
100
AcDbLine
 10
485.4524480378
 20
132.6975445641
 30
0.0
 11
485.4524480378
 21
208.5884134663
 31
0.0
  0
LINE
  5
B7
330
1F
100
AcDbEntity
  8
0
  6
Continuous
 62
     7
370
    25
100
AcDbLine
 10
375.4524486339
 20
-11.4115853416
 30
0.0
 11
485.4524480378
 21
-11.4115853416
 31
0.0
  0
LWPOLYLINE
  5
B8
330
1F
100
AcDbEntity
  8
0
  6
Continuous
 62
     7
370
    25
100
AcDbPolyline
 90
       50
 70
   128
 43
0.0
 10
375.4524486339
 20
208.5884134663
 10
375.4812935566
 20
209.8477702034
 10
375.7118592238
 20
212.3612086666
 10
376.1720294332
 20
214.8588220966
 10
376.8598707592
 20
217.3301349772
 10
377.7724961018
 20
219.7647910011
 10
378.9060795879
 20
222.1525530708
 10
380.255867747
 20
224.4834374083
 10
381.8161981379
 20
226.7476390493
 10
383.5805217003
 20
228.9356808556
 10
385.5414474582
 20
231.0383837116
 10
387.69074252
 20
233.046911229
 10
390.0193954086
 20
234.9528591526
 10
392.5176421379
 20
236.7482255591
 10
395.174996016
 20
238.4254853619
 10
397.9803184246
 20
239.9775903118
 10
400.9218393093
 20
241.3980286015
 10
403.9872205084
 20
242.6808695686
 10
407.1636079078
 20
243.820718993
 10
410.4376761442
 20
244.8127787006
 10
413.7956937974
 20
245.6529061688
 10
417.2235755449
 20
246.337554921
 10
420.7069436287
 20
246.8638937367
 10
424.231187926
 20
247.2296874416
 10
427.7815260192
 20
247.4334161175
 10
431.3430671081
 20
247.4741856945
 10
434.9008724293
 20
247.3518769634
 10
438.440020216
 20
247.0669667614
 10
441.9456646045
 20
246.6206769837
 10
445.4031018739
 20
246.0148553742
 10
448.7978322631
 20
245.2520649326
 10
452.1156149184
 20
244.3354945076
 10
455.3425340181
 20
243.2689885986
 10
458.4650574451
 20
242.0570175541
 10
461.4700852161
 20
240.7046477688
 10
464.3450128114
 20
239.2176012886
 10
467.0777851915
 20
237.6020769966
 10
469.6569377756
 20
235.8648549212
 10
472.0716523206
 20
234.0132217301
 10
474.3118034875
 20
232.0549558294
 10
476.3679923689
 20
229.998252858
 10
478.2315949177
 20
227.8517703903
 10
479.8947954749
 20
225.6244640244
 10
481.3506165718
 20
223.3257214916
 10
482.5929524576
 20
220.9651689423
 10
483.6165951764
 20
218.5526858461
 10
484.4172494685
 20
216.098419894
 10
484.9915551221
 20
213.6126528872
 10
485.3371055996
 20
211.1058156384
 10
485.4524480378
 20
208.5884134663
  0
LINE
  5
B9
330
1F
100
AcDbEntity
  8
0
  6
Continuous
 62
     1
370
    25
100
AcDbLine
 10
375.4524486339
 20
93.8066686881
 30
0.0
 11
485.4524480378
 21
93.8066686881
 31
0.0
  0
LWPOLYLINE
  5
BA
330
1F
100
AcDbEntity
  8
0
  6
Continuous
 62
     1
370
    25
100
AcDbPolyline
 90
       50
 70
   128
 43
0.0
 10
375.4524486339
 20
132.6975445641
 10
375.5173394656
 20
134.5861624373
 10
375.8054347908
 20
137.0966355694
 10
376.3227435028
 20
139.588661064
 10
377.0670863068
 20
142.0517634047
 10
378.0353451347
 20
144.4756458891
 10
379.2234631454
 20
146.850116123
 10
380.6264521753
 20
149.1652350319
 10
382.2384262657
 20
151.4112870587
 10
384.0526314651
 20
153.5788397682
 10
386.0614495551
 20
155.6588034523
 10
388.2564613795
 20
157.6424609316
 10
390.6284542953
 20
159.5214973581
 10
393.1674855029
 20
161.2880300177
 10
395.8629043972
 20
162.9346381319
 10
398.7034009969
 20
164.4544224632
 10
401.6770655488
 20
165.8410053146
 10
404.7714239185
 20
167.0885603321
 10
407.9734971946
 20
168.1918870104
 10
411.2698557054
 20
169.146321286
 10
414.6466711735
 20
169.9478994501
 10
418.0897828391
 20
170.5932240379
 10
421.5847477516
 20
171.0795979393
 10
425.1169064281
 20
171.4049796951
 10
428.6714443205
 20
171.5680132998
 10
432.2334523512
 20
171.5680132998
 10
435.7879902435
 20
171.4049796951
 10
439.3201489201
 20
171.0795979393
 10
442.8151138326
 20
170.5932240379
 10
446.2582254981
 20
169.9478994501
 10
449.6350409662
 20
169.146321286
 10
452.9313994771
 20
168.1918870104
 10
456.1334727531
 20
167.0885603321
 10
459.2278311228
 20
165.8410053146
 10
462.2014956748
 20
164.4544224632
 10
465.0419922745
 20
162.9346381319
 10
467.7374111688
 20
161.2880300177
 10
470.2764423763
 20
159.5214973581
 10
472.6484352922
 20
157.6424609316
 10
474.8434471166
 20
155.6588034523
 10
476.8522652065
 20
153.5788397682
 10
478.666470406
 20
151.4112870587
 10
480.2784444963
 20
149.1652350319
 10
481.6814335262
 20
146.850116123
 10
482.869551537
 20
144.4756458891
 10
483.8378103649
 20
142.0517634047
 10
484.5821531689
 20
139.588661064
 10
485.0994618809
 20
137.0966355694
 10
485.3875572061
 20
134.5861624373
 10
485.4524480378
 20
132.6975445641
  0
LINE
  5
BB
330
1F
100
AcDbEntity
  8
0
  6
Continuous
 62
     7
370
    25
100
AcDbLine
 10
212.1094140173
 20
-178.9624717485
 30
0.0
 11
136.2185413898
 21
-178.9624717485
 31
0.0
  0
LINE
  5
BC
330
1F
100
AcDbEntity
  8
0
  6
Continuous
 62
     7
370
    25
100
AcDbLine
 10
136.2185413898
 20
-288.9624711525
 30
0.0
 11
212.1094140173
 21
-288.9624711525
 31
0.0
  0
LINE
  5
BD
330
1F
100
AcDbEntity
  8
0
  6
Continuous
 62
     7
370
    25
100
AcDbLine
 10
120.1094138385
 20
-288.9624711525
 30
0.0
 11
136.2185413898
 21
-288.9624711525
 31
0.0
  0
LINE
  5
BE
330
1F
100
AcDbEntity
  8
0
  6
Continuous
 62
     7
370
    25
100
AcDbLine
 10
136.2185413898
 20
-178.9624717485
 30
0.0
 11
120.1094138385
 21
-178.9624717485
 31
0.0
  0
LWPOLYLINE
  5
BF
330
1F
100
AcDbEntity
  8
0
  6
Continuous
 62
     7
370
    25
100
AcDbPolyline
 90
       98
 70
   128
 43
0.0
 10
212.1094140173
 20
-288.9624711525
 10
214.6268161894
 20
-288.8471287142
 10
217.1336534382
 20
-288.5015782367
 10
219.6194204451
 20
-287.9272725832
 10
222.0736863972
 20
-287.1266182911
 10
224.4861620427
 20
-286.1029755723
 10
226.8467220427
 20
-284.8606396865
 10
229.145472026
 20
-283.4048185896
 10
231.3727634908
 20
-281.7416180324
 10
233.5192608596
 20
-279.8780154835
 10
235.5759563805
 20
-277.8218266021
 10
237.5342222811
 20
-275.5816754352
 10
239.3858480216
 20
-273.1669608902
 10
241.1230700971
 20
-270.5878083061
 10
242.7386018397
 20
-267.855035926
 10
244.2256557704
 20
-264.9801083308
 10
245.5780106546
 20
-261.9750805598
 10
246.7899816991
 20
-258.8525571328
 10
247.8564876081
 20
-255.6256380331
 10
248.7730729343
 20
-252.3078553777
 10
249.5358633758
 20
-248.9131249886
 10
250.1416700841
 20
-245.4556877192
 10
250.587974763
 20
-241.9500433307
 10
250.8728700639
 20
-238.4108955439
 10
250.9951936961
 20
-234.8530902227
 10
250.954409218
 20
-231.2915491339
 10
250.7506805421
 20
-227.7412110407
 10
250.3849017383
 20
-224.2169667434
 10
249.8585629226
 20
-220.7335986596
 10
249.1738992692
 20
-217.3057169121
 10
248.3337718011
 20
-213.9476992588
 10
247.3417120935
 20
-210.6736310225
 10
246.2018775703
 20
-207.4972436231
 10
244.9190366031
 20
-204.4318624239
 10
243.4985908629
 20
-201.4903415393
 10
241.9464859129
 20
-198.6850191306
 10
240.2692261101
 20
-196.0276652526
 10
238.4738597037
 20
-193.5294185232
 10
236.56791178
 20
-191.2007656347
 10
234.5593768121
 20
-189.0514705729
 10
232.4566814066
 20
-187.090544815
 10
230.2686396004
 20
-185.3262212526
 10
228.0044305087
 20
-183.7658908617
 10
225.6735536219
 20
-182.4161027025
 10
223.2857841016
 20
-181.2825192165
 10
220.8511355282
 20
-180.3698938739
 10
218.3798226477
 20
-179.6820525479
 10
215.8822092177
 20
-179.2218823384
 10
213.3687707545
 20
-178.9913166713
 10
210.8500572802
 20
-178.9913166713
 10
208.336618817
 20
-179.2218823384
 10
205.839005387
 20
-179.6820525479
 10
203.3676925064
 20
-180.3698938739
 10
200.933043933
 20
-181.2825192165
 10
198.5452744128
 20
-182.4161027025
 10
196.2143975259
 20
-183.7658908617
 10
193.9501884342
 20
-185.3262212526
 10
191.762146628
 20
-187.090544815
 10
189.6594512225
 20
-189.0514705729
 10
187.6509162546
 20
-191.2007656347
 10
185.744968331
 20
-193.5294185232
 10
183.9496019245
 20
-196.0276652526
 10
182.272345847
 20
-198.6850191306
 10
180.7202371718
 20
-201.4903415393
 10
179.2997877063
 20
-204.4318624239
 10
178.0169541897
 20
-207.4972436231
 10
176.8771122159
 20
-210.6736310225
 10
175.8850525082
 20
-213.9476992588
 10
175.0449250401
 20
-217.3057169121
 10
174.3602613868
 20
-220.7335986596
 10
173.8339300216
 20
-224.2169667434
 10
173.468140042
 20
-227.7412110407
 10
173.2644262673
 20
-231.2915491339
 10
173.2236417891
 20
-234.8530902227
 10
173.3459542455
 20
-238.4108955439
 10
173.6308569969
 20
-241.9500433307
 10
174.0771504999
 20
-245.4556877192
 10
174.6829646589
 20
-248.9131249886
 10
175.445762551
 20
-252.3078553777
 10
176.3623367013
 20
-255.6256380331
 10
177.4288463355
 20
-258.8525571328
 10
178.6408173801
 20
-261.9750805598
 10
179.9931685389
 20
-264.9801083308
 10
181.4802299203
 20
-267.855035926
 10
183.0957579376
 20
-270.5878083061
 10
184.832980013
 20
-273.1669608902
 10
186.6846057535
 20
-275.5816754352
 10
188.6428716542
 20
-277.8218266021
 10
190.699567175
 20
-279.8780154835
 10
192.8460645438
 20
-281.7416180324
 10
195.0733560087
 20
-283.4048185896
 10
197.372105992
 20
-284.8606396865
 10
199.7326659919
 20
-286.1029755723
 10
202.1451416374
 20
-287.1266182911
 10
204.5994075896
 20
-287.9272725832
 10
207.0851745964
 20
-288.5015782367
 10
209.5920118452
 20
-288.8471287142
 10
212.1094140173
 20
-288.9624711525
  0
LWPOLYLINE
  5
C0
330
1F
100
AcDbEntity
  8
0
  6
Continuous
 62
     7
370
    25
100
AcDbPolyline
 90
       92
 70
   128
 43
0.0
 10
212.1094140173
 20
-282.3624711882
 10
209.7482654215
 20
-282.2471473765
 10
207.3983672024
 20
-281.9017235588
 10
205.0709175826
 20
-281.3278500389
 10
202.7770104767
 20
-280.5282574546
 10
200.5275758864
 20
-279.5067567777
 10
198.3333351971
 20
-278.268220688
 10
196.2047415735
 20
-276.8185425948
 10
194.1519427062
 20
-275.1646366369
 10
192.1847212077
 20
-273.3143855285
 10
190.3124499084
 20
-271.2766033065
 10
188.5440471531
 20
-269.0610055279
 10
186.8879469992
 20
-266.6781422149
 10
185.3520396115
 20
-264.1393773656
 10
183.9436414601
 20
-261.4568051349
 10
182.6694655181
 20
-258.6432088565
 10
181.5355840088
 20
-255.7119995754
 10
180.5474023284
 20
-252.6771415424
 10
179.7096292437
 20
-249.5531009909
 10
179.0262545408
 20
-246.3547632497
 10
178.5005341233
 20
-243.0973712753
 10
178.1349751116
 20
-239.7964469556
 10
177.9313246669
 20
-236.4677210271
 10
177.890543914
 20
-233.1270564164
 10
178.0128340186
 20
-229.7903730933
 10
178.2976101102
 20
-226.4735715862
 10
178.7435124577
 20
-223.1924578946
 10
179.3484176458
 20
-219.9626684587
 10
180.109446025
 20
-216.7995952468
 10
181.0229691626
 20
-213.7183107834
 10
182.0846359195
 20
-210.7334983002
 10
183.2893836261
 20
-207.8593809556
 10
184.6314641596
 20
-205.1096585046
 10
186.1044960977
 20
-202.4974327933
 10
187.7014535428
 20
-200.0351537418
 10
189.4147220017
 20
-197.7345522892
 10
191.236150539
 20
-195.6065919649
 10
193.1570368768
 20
-193.6614167344
 10
195.1682466031
 20
-191.9082951199
 10
197.2601908208
 20
-190.3555792224
 10
199.4228932024
 20
-189.0106711935
 10
201.6460570456
 20
-187.8799748074
 10
203.9190801741
 20
-186.9688880097
 10
206.2311368944
 20
-186.281743313
 10
208.5712077977
 20
-185.821822698
 10
210.9281319143
 20
-185.5913129102
 10
213.2906961204
 20
-185.5913129102
 10
215.647620237
 20
-185.821822698
 10
217.9876911403
 20
-186.281743313
 10
220.2997478606
 20
-186.9688880097
 10
222.5727709891
 20
-187.8799748074
 10
224.7959348322
 20
-189.0106711935
 10
226.9586372138
 20
-190.3555792224
 10
229.0505814315
 20
-191.9082951199
 10
231.0617911578
 20
-193.6614167344
 10
232.9826774956
 20
-195.6065919649
 10
234.804106033
 20
-197.7345522892
 10
236.5173744918
 20
-200.0351537418
 10
238.114331937
 20
-202.4974327933
 10
239.587363875
 20
-205.1096585046
 10
240.9294444085
 20
-207.8593809556
 10
242.1341958405
 20
-210.7334983002
 10
243.1958588721
 20
-213.7183107834
 10
244.1093820096
 20
-216.7995952468
 10
244.8704066635
 20
-219.9626684587
 10
245.4753118516
 20
-223.1924578946
 10
245.9212141992
 20
-226.4735715862
 10
246.2059902908
 20
-229.7903730933
 10
246.3282841207
 20
-233.1270564164
 10
246.2874996425
 20
-236.4677210271
 10
246.0838454725
 20
-239.7964469556
 10
245.7182901861
 20
-243.0973712753
 10
245.1925772191
 20
-246.3547632497
 10
244.5092025162
 20
-249.5531009909
 10
243.671421981
 20
-252.6771415424
 10
242.6832440258
 20
-255.7119995754
 10
241.5493625165
 20
-258.6432088565
 10
240.2751865746
 20
-261.4568051349
 10
238.8667884232
 20
-264.1393773656
 10
237.3308810355
 20
-266.6781422149
 10
235.6747808815
 20
-269.0610055279
 10
233.9063781263
 20
-271.2766033065
 10
232.0341068269
 20
-273.3143855285
 10
230.0668853284
 20
-275.1646366369
 10
228.0140864612
 20
-276.8185425948
 10
225.8854928376
 20
-278.268220688
 10
223.6912521483
 20
-279.5067567777
 10
221.4418175579
 20
-280.5282574546
 10
219.147910452
 20
-281.3278500389
 10
216.8204608322
 20
-281.9017235588
 10
214.4705626131
 20
-282.2471473765
 10
212.1094140173
 20
-282.3624711882
  0
ARC
  5
C1
330
1F
100
AcDbEntity
  8
0
  6
Continuous
 62
     7
370
    25
100
AcDbCircle
 10
120.1094138385
 20
-233.9624714505
 30
0.0
 40
55.00000000000003
100
AcDbArc
 50
90.0
 51
270.0
  0
LWPOLYLINE
  5
C2
330
1F
100
AcDbEntity
  8
0
  6
Continuous
 62
     1
370
    25
100
AcDbPolyline
 90
       50
 70
   128
 43
0.0
 10
136.2185413898
 20
-178.9624717485
 10
134.3299132721
 20
-179.0273625802
 10
131.8194457279
 20
-179.3154579055
 10
129.3274286152
 20
-179.8327666175
 10
126.8643155643
 20
-180.5771094214
 10
124.4404372708
 20
-181.5453682493
 10
122.0659602848
 20
-182.7334862601
 10
119.750844199
 20
-184.13647529
 10
117.5047993609
 20
-185.7484493803
 10
115.3372466513
 20
-187.5626545798
 10
113.2572773793
 20
-189.5714726698
 10
111.2736157091
 20
-191.7664844941
 10
109.3945811452
 20
-194.13847741
 10
107.6280559362
 20
-196.6775086176
 10
105.9814487533
 20
-199.3729275119
 10
104.4616672159
 20
-202.2134241115
 10
103.0750843645
 20
-205.1870886635
 10
101.8275181712
 20
-208.2814470332
 10
100.7241970809
 20
-211.4835203093
 10
99.769753492
 20
-214.7798788201
 10
98.9681883664
 20
-218.1566942882
 10
98.3228656412
 20
-221.5998059537
 10
97.8364880146
 20
-225.0947708663
 10
97.5111006708
 20
-228.6269295428
 10
97.3480633409
 20
-232.1814674351
 10
97.3480633409
 20
-235.7434754658
 10
97.5111006708
 20
-239.2980133582
 10
97.8364880146
 20
-242.8301720347
 10
98.3228656412
 20
-246.3251369473
 10
98.9681883664
 20
-249.7682486128
 10
99.769753492
 20
-253.1450640809
 10
100.7241970809
 20
-256.4414225917
 10
101.8275181712
 20
-259.6434958678
 10
103.0750843645
 20
-262.7378542375
 10
104.4616672159
 20
-265.7115187895
 10
105.9814487533
 20
-268.5520153891
 10
107.6280559362
 20
-271.2474342834
 10
109.3945811452
 20
-273.786465491
 10
111.2736157091
 20
-276.1584584068
 10
113.2572773793
 20
-278.3534702312
 10
115.3372466513
 20
-280.3622883212
 10
117.5047993609
 20
-282.1764935207
 10
119.750844199
 20
-283.788467611
 10
122.0659602848
 20
-285.1914566409
 10
124.4404372708
 20
-286.3795746516
 10
126.8643155643
 20
-287.3478334796
 10
129.3274286152
 20
-288.0921762835
 10
131.8194457279
 20
-288.6094849955
 10
134.3299132721
 20
-288.8975803208
 10
136.2185413898
 20
-288.9624711525
  0
INSERT
  5
CE
330
1F
100
AcDbEntity
  8
FORMAT
 62
     7
100
AcDbBlockReference
  2
SW_CENTERMARKSYMBOL_1
 10
120.1094138385
 20
-233.9624714505
 30
0.0
  0
LINE
  5
CF
330
1F
100
AcDbEntity
  8
0
  6
Continuous
 62
     7
370
    25
100
AcDbLine
 10
337.6055259921
 20
-224.0986858345
 30
0.0
 11
337.6055259921
 21
-310.0136844052
 31
0.0
  0
LINE
  5
D0
330
1F
100
AcDbEntity
  8
0
  6
Continuous
 62
     7
370
    25
100
AcDbLine
 10
447.6055236881
 20
-310.0136844052
 30
0.0
 11
447.6055236881
 21
-224.0986858345
 31
0.0
  0
LINE
  5
D1
330
1F
100
AcDbEntity
  8
0
  6
Continuous
 62
     7
370
    25
100
AcDbLine
 10
410.0279520015
 20
-65.319933682
 30
0.0
 11
356.3650013364
 21
-158.2668874033
 31
0.0
  0
LINE
  5
D2
330
1F
100
AcDbEntity
  8
0
  6
Continuous
 62
     7
370
    25
100
AcDbLine
 10
451.6277950048
 20
-213.2668871331
 30
0.0
 11
505.2907456699
 21
-120.3199334118
 31
0.0
  0
SPLINE
  5
D3
330
1F
100
AcDbEntity
  8
0
  6
Continuous
 62
     7
370
    25
100
AcDbSpline
210
0.0
220
0.0
230
1.0
 70
     8
 71
     3
 72
    22
 73
    18
 74
     0
 42
0.000000001
 43
0.00000001
 40
0.0
 40
0.0
 40
0.0
 40
0.0
 40
0.0396120875921309
 40
0.1077355556523737
 40
0.17595650625742
 40
0.2443247474744389
 40
0.3128931873473699
 40
0.3817102838702807
 40
0.4508183511745021
 40
0.5202491898007617
 40
0.5900209358200482
 40
0.6601327569638293
 40
0.7305597950064289
 40
0.801248257842567
 40
0.8721118437890023
 40
0.9429861191191462
 40
1.0
 40
1.0
 40
1.0
 40
1.0
 10
356.3650013364398
 20
-158.2668874033259
 30
0.0
 10
355.902117689243
 20
-159.0790906979952
 30
0.0
 10
354.6431831072887
 20
-161.2880925096357
 30
0.0
 10
352.6982656752507
 20
-164.9564065430048
 30
0.0
 10
350.5697783863046
 20
-169.285233681096
 30
0.0
 10
348.584895641818
 20
-173.6824190053508
 30
0.0
 10
346.7451099040026
 20
-178.1425235137055
 30
0.0
 10
345.0554089923834
 20
-182.6620066842609
 30
0.0
 10
343.5205669239645
 20
-187.2366011093565
 30
0.0
 10
342.1461367994685
 20
-191.8617280727168
 30
0.0
 10
340.9382384518586
 20
-196.5320096125272
 30
0.0
 10
339.9034693631319
 20
-201.2410264200948
 30
0.0
 10
339.0492183494892
 20
-205.9808553640316
 30
0.0
 10
338.3815323258512
 20
-210.7419298289061
 30
0.0
 10
337.9122490891441
 20
-215.5110658219756
 30
0.0
 10
337.6487631304254
 20
-219.9673152442236
 30
0.0
 10
337.6188580088529
 20
-222.8247925101842
 30
0.0
 10
337.6055259921159
 20
-224.098685834539
 30
0.0
  0
SPLINE
  5
D4
330
1F
100
AcDbEntity
  8
0
  6
Continuous
 62
     7
370
    25
100
AcDbSpline
210
0.0
220
0.0
230
1.0
 70
     8
 71
     3
 72
    20
 73
    16
 74
     0
 42
0.000000001
 43
0.00000001
 40
0.0
 40
0.0
 40
0.0
 40
0.0
 40
0.0751500234812297
 40
0.1604433375041988
 40
0.2432850041147336
 40
0.3244763661610766
 40
0.4047162684088798
 40
0.4845870595067571
 40
0.5645424478809568
 40
0.6448681462209365
 40
0.7257171396293117
 40
0.8071985594337253
 40
0.8893120947024902
 40
0.9719707801363092
 40
1.0
 40
1.0
 40
1.0
 40
1.0
 10
447.6056079817747
 20
-224.1398484086835
 30
0.0
 10
447.6057549680442
 20
-224.1318589018376
 30
0.0
 10
447.606068779891
 20
-224.1148015133767
 30
0.0
 10
447.6276203604427
 20
-223.8562831950009
 30
0.0
 10
447.686016686039
 20
-223.4204329648978
 30
0.0
 10
447.7943846489208
 20
-222.8094185268536
 30
0.0
 10
447.964062548877
 20
-222.0416374850889
 30
0.0
 10
448.2048036604774
 20
-221.1294568580913
 30
0.0
 10
448.5241233330763
 20
-220.0895222348826
 30
0.0
 10
448.9268134880971
 20
-218.9406080788469
 30
0.0
 10
449.4151131897735
 20
-217.7044542030372
 30
0.0
 10
449.9865752627915
 20
-216.4038866991572
 30
0.0
 10
450.6409426720818
 20
-215.0668680231437
 30
0.0
 10
451.1954302029832
 20
-214.0109961213658
 30
0.0
 10
451.5447401822911
 20
-213.4203597278571
 30
0.0
 10
451.6331950697901
 20
-213.270794359458
 30
0.0
  0
LWPOLYLINE
  5
D5
330
1F
100
AcDbEntity
  8
0
  6
Continuous
 62
     7
370
    25
100
AcDbPolyline
 90
       98
 70
   128
 43
0.0
 10
353.7146520856
 20
-287.5624614517
 10
356.3136106633
 20
-286.1562811028
 10
359.0647921333
 20
-284.8501680593
 10
361.9566540214
 20
-283.6495995205
 10
364.9770697244
 20
-282.5596113086
 10
368.1133681873
 20
-281.5847749638
 10
371.352393008
 20
-280.7291788304
 10
374.6805623646
 20
-279.9964117099
 10
378.0839151135
 20
-279.3895484146
 10
381.548176644
 20
-278.9111330397
 10
385.058818147
 20
-278.5631721207
 10
388.6011132504
 20
-278.3471262693
 10
392.1602012387
 20
-278.2639010497
 10
395.7211594935
 20
-278.3138446973
 10
399.2690469568
 20
-278.4967503997
 10
402.7889871083
 20
-278.8118464126
 10
406.2662153801
 20
-279.2578143077
 10
409.6861450114
 20
-279.8327844106
 10
413.0344315856
 20
-280.5343426439
 10
416.2970336168
 20
-281.359547255
 10
419.4602625988
 20
-282.3049394602
 10
422.5108561039
 20
-283.3665491481
 10
425.4360166365
 20
-284.5399264327
 10
428.2234741953
 20
-285.820150398
 10
430.8615352526
 20
-287.2018512904
 10
433.3391401296
 20
-288.6792314751
 10
435.6458941127
 20
-290.2460955648
 10
437.7721186556
 20
-291.8958738954
 10
439.7089020049
 20
-293.621642627
 10
441.4481180505
 20
-295.4161650403
 10
442.9824688021
 20
-297.271916057
 10
444.3055215972
 20
-299.1811098028
 10
445.4117288566
 20
-301.1357383841
 10
446.2964438904
 20
-303.1276053432
 10
446.9559643614
 20
-305.1483537908
 10
447.3875191142
 20
-307.1895105056
 10
447.5892997856
 20
-309.2425102655
 10
447.5604608045
 20
-311.2987475501
 10
447.3011180747
 20
-313.349594029
 10
446.8123647801
 20
-315.3864472234
 10
446.0962503113
 20
-317.4007670021
 10
445.1557736798
 20
-319.3841006732
 10
443.9948861528
 20
-321.3281331659
 10
442.618453057
 20
-323.224709081
 10
441.0322485108
 20
-325.0658722279
 10
439.2429244721
 20
-326.8439017411
 10
437.2579883484
 20
-328.5513402127
 10
435.0857644716
 20
-330.1810250565
 10
432.7353611707
 20
-331.7261196815
 10
430.2166411375
 20
-333.1801458069
 10
427.5401687431
 20
-334.5370047509
 10
424.7171659152
 20
-335.7910029029
 10
421.7594752595
 20
-336.9368821364
 10
418.679504084
 20
-337.9698369168
 10
415.4901703976
 20
-338.8855333102
 10
412.2048485809
 20
-339.6801312229
 10
408.8373206532
 20
-340.3502973274
 10
405.4017137114
 20
-340.8932229302
 10
401.9124314409
 20
-341.3066270136
 10
398.3841159204
 20
-341.5887782848
 10
394.8315606936
 20
-341.7384936559
 10
391.2696673057
 20
-341.7551420453
 10
387.7133820828
 20
-341.6386565431
 10
384.1776118384
 20
-341.3895252873
 10
380.6771935803
 20
-341.0087922235
 10
377.2268049484
 20
-340.4980571058
 10
373.8409220682
 20
-339.8594572479
 10
370.5337431593
 20
-339.0956751269
 10
367.3191398031
 20
-338.2099132919
 10
364.2105989912
 20
-337.2058852402
 10
361.2211559535
 20
-336.0878040117
 10
358.3633464141
 20
-334.8603607099
 10
355.6491641148
 20
-333.5286999806
 10
353.0899892809
 20
-332.0984091298
 10
350.6965538007
 20
-330.5754888977
 10
348.4789005603
 20
-328.966323901
 10
346.4463312538
 20
-327.2776646696
 10
344.6073700814
 20
-325.5165945246
 10
342.9697253066
 20
-323.6905013027
 10
341.5402741096
 20
-321.8070412407
 10
340.3250079283
 20
-319.8741165449
 10
339.3290225803
 20
-317.8998331925
 10
338.556499823
 20
-315.8924720391
 10
338.0106783785
 20
-313.8604538424
 10
337.693842079
 20
-311.8123020059
 10
337.6073277699
 20
-309.7566045622
 10
337.7514936994
 20
-307.7019868003
 10
338.1257366408
 20
-305.6570633646
 10
338.7284879409
 20
-303.6304131633
 10
339.5572174719
 20
-301.6305375504
 10
340.6084494358
 20
-299.6658238285
 10
341.8777768528
 20
-297.7445125552
 10
343.3598734149
 20
-295.8746633271
 10
345.0485224619
 20
-294.064116763
 10
346.9366420062
 20
-292.3204678923
 10
349.01631305
 20
-290.6510315592
 10
351.2788123483
 20
-289.0628083029
 10
353.7146520856
 20
-287.5624614517
  0
LWPOLYLINE
  5
D6
330
1F
100
AcDbEntity
  8
0
  6
Continuous
 62
     7
370
    25
100
AcDbPolyline
 90
       92
 70
   128
 43
0.0
 10
358.3815568161
 20
-290.2566082061
 10
356.1019523182
 20
-291.6667471666
 10
353.9963049862
 20
-293.1643183041
 10
352.0746464287
 20
-294.742183173
 10
350.3461369997
 20
-296.3928242986
 10
348.819013774
 20
-298.1083752105
 10
347.5005497171
 20
-299.8806592197
 10
346.3970359047
 20
-301.7012331386
 10
345.5137248878
 20
-303.5614199748
 10
344.8548260828
 20
-305.4523541722
 10
344.4234833814
 20
-307.3650249497
 10
344.2217461739
 20
-309.2903173596
 10
344.250585155
 20
-311.2190579082
 10
344.5098554449
 20
-313.1420525728
 10
344.9983202969
 20
-315.0501415456
 10
345.7136603175
 20
-316.9342273668
 10
346.6524563434
 20
-318.7853349915
 10
347.8102421258
 20
-320.5946422025
 10
349.1814984031
 20
-322.3535248513
 10
350.7596904384
 20
-324.0536028584
 10
352.5372956775
 20
-325.6867744281
 10
354.5058435918
 20
-327.2452572977
 10
356.6559546965
 20
-328.7216234273
 10
358.9773815863
 20
-330.1088378964
 10
361.4590647059
 20
-331.4002880578
 10
364.0891706279
 20
-332.5898238832
 10
366.8551714896
 20
-333.6717734078
 10
369.7438848764
 20
-334.6409809607
 10
372.7415452324
 20
-335.4928271007
 10
375.833864776
 20
-336.2232546571
 10
379.0061092324
 20
-336.8287820362
 10
382.243163688
 20
-337.3065229902
 10
385.5295958107
 20
-337.6542018233
 10
388.8497506807
 20
-337.8701594753
 10
392.1878021561
 20
-337.9533679675
 10
395.5278424361
 20
-337.903433444
 10
398.8539610851
 20
-337.7205900894
 10
402.1503003514
 20
-337.4057107731
 10
405.4011526315
 20
-336.9602964051
 10
408.5910302756
 20
-336.3864690922
 10
411.7047288081
 20
-335.6869630147
 10
414.727414514
 20
-334.8651134008
 10
417.6446744881
 20
-333.924833717
 10
420.4426147585
 20
-332.8706076842
 10
423.1078955182
 20
-331.7074567731
 10
425.6278197824
 20
-330.4409255207
 10
427.9903783332
 20
-329.0770495002
 10
430.1843125291
 20
-327.6223281872
 10
432.1991673176
 20
-326.0836943553
 10
434.0253382385
 20
-324.4684778181
 10
435.6541269069
 20
-322.784379482
 10
437.0777664486
 20
-321.0394201665
 10
438.2894778065
 20
-319.2419202646
 10
439.2834835698
 20
-317.4004430976
 10
440.0550474863
 20
-315.5237660225
 10
440.6004935604
 20
-313.6208298692
 10
440.9172218586
 20
-311.7007024441
 10
441.0037203627
 20
-309.7725382327
 10
440.8595834091
 20
-307.8455221336
 10
440.4854932501
 20
-305.9288375249
 10
439.8832305899
 20
-304.0316206439
 10
439.0556693169
 20
-302.1629088833
 10
438.0067514784
 20
-300.3316111389
 10
436.7414767443
 20
-298.5464530646
 10
435.2658760653
 20
-296.815940576
 10
433.5869774283
 20
-295.1483218341
 10
431.7127828076
 20
-293.551543525
 10
429.6522230546
 20
-292.0332156948
 10
427.4151233653
 20
-290.6005705245
 10
425.0121370553
 20
-289.2604393065
 10
422.4547188065
 20
-288.0192065862
 10
419.7550547795
 20
-286.8827880646
 10
416.9260121105
 20
-285.8565984031
 10
413.9810715351
 20
-284.9455275339
 10
410.9342672952
 20
-284.1539181348
 10
407.8001156873
 20
-283.4855426294
 10
404.5935557938
 20
-282.9435872195
 10
401.3298697983
 20
-282.5306302157
 10
398.0246046197
 20
-282.2486454588
 10
394.693519228
 20
-282.0989719063
 10
391.3524805946
 20
-282.0823235169
 10
388.0174149599
 20
-282.1987839279
 10
384.7042130029
 20
-282.4477927691
 10
381.4286639867
 20
-282.8281669527
 10
378.2063767332
 20
-283.3380915487
 10
375.0527085003
 20
-283.9751365128
 10
371.9826899079
 20
-284.7362696116
 10
369.010946571
 20
-285.6178590847
 10
366.1516424648
 20
-286.6157063382
 10
363.4184041924
 20
-287.7250562103
 10
360.8242538127
 20
-288.9406205411
 10
358.3815568161
 20
-290.2566082061
  0
LWPOLYLINE
  5
D7
330
1F
100
AcDbEntity
  8
0
  6
Continuous
 62
     7
370
    25
100
AcDbPolyline
 90
       98
 70
   128
 43
0.0
 10
418.7684760812
 20
-70.3687105934
 10
420.6301076483
 20
-71.4437416809
 10
422.6470503521
 20
-72.6084305773
 10
424.8108484812
 20
-73.8578945101
 10
427.1124246581
 20
-75.1868918367
 10
429.5421272545
 20
-76.5898433416
 10
432.0897593672
 20
-78.0608793854
 10
434.7446420385
 20
-79.5938094891
 10
437.4956353294
 20
-81.1822196737
 10
440.3312041744
 20
-82.819443565
 10
443.2394526255
 20
-84.4986186668
 10
446.2081818042
 20
-86.2126894042
 10
449.2249399509
 20
-87.9544786072
 10
452.2770777428
 20
-89.7166707796
 10
455.3517930747
 20
-91.4918744562
 10
458.4361797911
 20
-93.2726564228
 10
461.5173146148
 20
-95.051524986
 10
464.5822650486
 20
-96.8210440382
 10
467.6181749868
 20
-98.5737912333
 10
470.6123253006
 20
-100.3023868811
 10
473.5521364728
 20
-101.9996049691
 10
476.4252838431
 20
-103.6583301989
 10
479.2197338276
 20
-105.2715788943
 10
481.9237406264
 20
-106.8326187657
 10
484.525984765
 20
-108.3348663957
 10
487.0155356393
 20
-109.7720481119
 10
489.3819458523
 20
-111.1381327822
 10
491.6153182209
 20
-112.4273705008
 10
493.7062536686
 20
-113.6343841638
 10
495.6460017852
 20
-114.7540860611
 10
497.4264190094
 20
-115.781787562
 10
499.0400427147
 20
-116.7131810527
 10
500.4801030638
 20
-117.5443467733
 10
501.7405493495
 20
-118.2718288602
 10
502.8161118988
 20
-118.8925433265
 10
503.7022704622
 20
-119.4039058117
 10
504.395301629
 20
-119.8037616159
 10
504.8923130717
 20
-120.0904419693
 10
505.1912106188
 20
-120.262738931
 10
505.2907430357
 20
-120.3199373232
 10
505.1904967565
 20
-120.2617812666
 10
504.890882713
 20
-120.0885274076
 10
504.3931653106
 20
-119.8009068901
 10
503.6994308183
 20
-119.400107101
 10
502.8125873686
 20
-118.8878325015
 10
501.736354421
 20
-118.2662072838
 10
500.4752495907
 20
-117.5378590183
 10
499.0345596732
 20
-116.7058349985
 10
497.4203248385
 20
-115.7736235305
 10
495.639325461
 20
-114.7451402412
 10
493.6990215328
 20
-113.6246930923
 10
491.6075526641
 20
-112.4169823807
 10
489.3736933018
 20
-111.127074877
 10
487.0068132173
 20
-109.7603749265
 10
484.5168406276
 20
-108.3226335736
 10
481.9142174143
 20
-106.8198557822
 10
479.2098596112
 20
-105.2583688764
 10
476.4151152574
 20
-103.6447069492
 10
473.5417011766
 20
-101.9856351971
 10
470.6016713675
 20
-100.2881316662
 10
467.6073564176
 20
-98.55929752
 10
464.5713134535
 20
-96.8063889783
 10
461.5062813601
 20
-95.0367579998
 10
458.4251122921
 20
-93.2578340349
 10
455.3407334782
 20
-91.477080678
 10
452.2660813667
 20
-89.7019454793
 10
449.2140463077
 20
-87.9398858021
 10
446.1974383091
 20
-86.1983034259
 10
443.2289014254
 20
-84.4844920751
 10
440.3208926845
 20
-82.8056556749
 10
437.4856070136
 20
-81.1688041689
 10
434.7349373973
 20
-79.5808248172
 10
432.0804218646
 20
-78.0483664184
 10
429.5331930281
 20
-76.5778892665
 10
427.1039327267
 20
-75.1755203341
 10
424.8028339946
 20
-73.847168202
 10
422.6395462374
 20
-72.5983849435
 10
420.6231441986
 20
-71.4344272991
 10
418.7620868824
 20
-70.3601569186
 10
417.0641760654
 20
-69.3800924553
 10
415.5365358823
 20
-68.4983430332
 10
414.1855713368
 20
-67.7186086302
 10
413.0169524973
 20
-67.0441740004
 10
412.035582886
 20
-66.4778265485
 10
411.2455718208
 20
-66.021974207
 10
410.6502370489
 20
-65.6785252881
 10
410.2520731368
 20
-65.4489219488
 10
410.0527501535
 20
-65.3341151018
 10
410.0531084017
 20
-65.3346009214
 10
410.2531452473
 20
-65.4503524073
 10
410.6520177532
 20
-65.6809243328
 10
411.2480584849
 20
-66.0253102836
 10
412.0387623389
 20
-66.4820810652
 10
413.0208155193
 20
-67.0493345183
 10
414.1900955376
 20
-67.724671186
 10
415.5417028225
 20
-68.5052673246
 10
417.0699633545
 20
-69.3878460081
 10
418.7684760812
 20
-70.3687105934
  0
LWPOLYLINE
  5
D8
330
1F
100
AcDbEntity
  8
0
  6
Continuous
 62
     7
370
    25
100
AcDbPolyline
 90
       92
 70
   128
 43
0.0
 10
423.4353808117
 20
-73.0628573478
 10
421.8473428776
 20
-72.1457892376
 10
420.4299654356
 20
-71.3272428253
 10
419.189999884
 20
-70.6111110125
 10
418.1333599526
 20
-70.0008274461
 10
417.2650795555
 20
-69.4992813421
 10
416.5892943523
 20
-69.1088676724
 10
416.1092285769
 20
-68.8314552185
 10
415.8271686958
 20
-68.6683531085
 10
415.7444581398
 20
-68.620332103
 10
415.8614920355
 20
-68.6876458824
 10
416.177706669
 20
-68.8699641213
 10
416.6916058271
 20
-69.1664120259
 10
417.4007331387
 20
-69.5755786942
 10
418.3017102706
 20
-70.0955148268
 10
419.3902448297
 20
-70.7237372849
 10
420.6611474851
 20
-71.4572572213
 10
422.1083662129
 20
-72.2926089708
 10
423.7250014423
 20
-73.2257614511
 10
425.5033488611
 20
-74.2522706288
 10
427.4349323429
 20
-75.3672863583
 10
429.5105490575
 20
-76.5654689148
 10
431.7203111238
 20
-77.8411195034
 10
434.0536813768
 20
-79.1881248573
 10
436.4995449435
 20
-80.600123277
 10
439.0462448864
 20
-82.0703274828
 10
441.6816432013
 20
-83.5917697178
 10
444.3931817737
 20
-85.1571818037
 10
447.1679406189
 20
-86.7591200194
 10
449.992696163
 20
-88.3899439929
 10
452.8539890736
 20
-90.0418832397
 10
455.7381822109
 20
-91.707037158
 10
458.6315238485
 20
-93.3775119101
 10
461.5202372353
 20
-95.0453322072
 10
464.3905508886
 20
-96.702528758
 10
467.2287855217
 20
-98.3412401703
 10
470.0214251674
 20
-99.9536384256
 10
472.7551435188
 20
-101.5320414236
 10
475.4169277365
 20
-103.0689236324
 10
477.9940916191
 20
-104.5569541076
 10
480.4743467261
 20
-105.9890679781
 10
482.8458840373
 20
-107.3584223407
 10
485.0973897582
 20
-108.6584905573
 10
487.2181454183
 20
-109.8830774666
 10
489.1980384081
 20
-111.0263619721
 10
491.0276304678
 20
-112.082881834
 10
492.6982156389
 20
-113.0475914703
 10
494.2018176304
 20
-113.9159212715
 10
495.531284649
 20
-114.6837106888
 10
496.6802709597
 20
-115.3473192611
 10
497.6433053747
 20
-115.9035688255
 10
498.4157965218
 20
-116.3498134865
 10
498.9940644543
 20
-116.6839213652
 10
499.375356456
 20
-116.9043141537
 10
499.5578523101
 20
-117.0099336554
 10
499.5406774693
 20
-117.0002798163
 10
499.3239267642
 20
-116.8753940013
 10
498.9086196215
 20
-116.6358635582
 10
498.2967448457
 20
-116.2828476851
 10
497.4912132035
 20
-115.8180257216
 10
496.4958600582
 20
-115.2436047594
 10
495.315440101
 20
-114.56231661
 10
493.9555680826
 20
-113.7774200865
 10
492.4227293491
 20
-112.8926462619
 10
490.724224525
 20
-111.9122273697
 10
488.8681510735
 20
-110.8408253281
 10
486.8633539061
 20
-109.6835397294
 10
484.7193881741
 20
-108.445892447
 10
482.446471566
 20
-107.1337696796
 10
480.055425985
 20
-105.7534552019
 10
477.5576560637
 20
-104.3114962938
 10
474.965063471
 20
-102.8147759384
 10
472.2900043132
 20
-101.2704152279
 10
469.5452191213
 20
-99.6857998642
 10
466.743788565
 20
-98.068463338
 10
463.8990725368
 20
-96.4261065155
 10
461.0246192728
 20
-94.7665634174
 10
458.1341278158
 20
-93.0977552179
 10
455.241374917
 20
-91.4276176207
 10
452.3601465471
 20
-89.7641160721
 10
449.5041680907
 20
-88.1151750386
 10
446.687054297
 20
-86.4886612785
 10
443.9222289372
 20
-84.8923009543
 10
441.2228681699
 20
-83.3337321024
 10
438.6018320521
 20
-81.8203677522
 10
436.0716118562
 20
-80.3594263434
 10
433.6442721175
 20
-78.9578617634
 10
431.3313716093
 20
-77.6223542205
 10
429.1439370007
 20
-76.3592767821
 10
427.0923917342
 20
-75.1746299726
 10
425.1865112445
 20
-74.0740767535
 10
423.4353808117
 20
-73.0628573478
  0
LWPOLYLINE
  5
D9
330
1F
100
AcDbEntity
  8
0
  6
Continuous
 62
     1
370
    25
100
AcDbPolyline
 90
       14
 70
   128
 43
0.0
 10
431.4963975946
 20
-201.6474628811
 10
433.9322373319
 20
-203.1478097322
 10
436.1947366302
 20
-204.7360329886
 10
438.274407674
 20
-206.4054693216
 10
440.1625272183
 20
-208.1491181923
 10
441.8511762653
 20
-209.9596647564
 10
443.3332728274
 20
-211.8295139846
 10
444.6026002443
 20
-213.7508252579
 10
445.6538322083
 20
-215.7155389797
 10
446.4825617393
 20
-217.7154145927
 10
447.0853130394
 20
-219.7420647939
 10
447.4595559808
 20
-221.7869882297
 10
447.6037219103
 20
-223.8416059916
 10
447.6055236881
 20
-224.0986858345
  0
LWPOLYLINE
  5
DA
330
1F
100
AcDbEntity
  8
0
  6
Continuous
 62
     1
370
    25
100
AcDbPolyline
 90
       38
 70
   128
 43
0.0
 10
337.6055259921
 20
-224.0986858345
 10
337.6217498946
 20
-223.3275116948
 10
337.823530566
 20
-221.274511935
 10
338.2550853188
 20
-219.2333552201
 10
338.9146057898
 20
-217.2126067726
 10
339.7993208236
 20
-215.2207398135
 10
340.905528083
 20
-213.2661112322
 10
342.2285808781
 20
-211.3569174864
 10
343.7629316297
 20
-209.5011664696
 10
345.5021476753
 20
-207.7066440564
 10
347.4389310246
 20
-205.9808753248
 10
349.5651555675
 20
-204.3310969942
 10
351.8719095506
 20
-202.7642329044
 10
354.3495144275
 20
-201.2868527198
 10
356.9875754849
 20
-199.9051518274
 10
359.7750330437
 20
-198.624927862
 10
362.7001935763
 20
-197.4515505774
 10
365.7507870814
 20
-196.3899408896
 10
368.9140160634
 20
-195.4445486843
 10
372.1766180946
 20
-194.6193440732
 10
375.5249046688
 20
-193.9177858399
 10
378.9448343001
 20
-193.3428157371
 10
382.4220625719
 20
-192.896847842
 10
385.9420027234
 20
-192.5817518291
 10
389.4898901867
 20
-192.3988461266
 10
393.0508484415
 20
-192.348902479
 10
396.6099364298
 20
-192.4321276987
 10
400.1522315332
 20
-192.64817355
 10
403.6628730362
 20
-192.9961344691
 10
407.1271345667
 20
-193.474549844
 10
410.5304873155
 20
-194.0814131393
 10
413.8586566721
 20
-194.8141802597
 10
417.0976814929
 20
-195.6697763931
 10
420.2339799558
 20
-196.644612738
 10
423.2543956588
 20
-197.7346009498
 10
426.1462575469
 20
-198.9351694886
 10
428.8974390169
 20
-200.2412825321
 10
431.4963975946
 20
-201.6474628811
  0
LWPOLYLINE
  5
DB
330
1F
100
AcDbEntity
  8
0
  6
Continuous
 62
     1
370
    25
100
AcDbPolyline
 90
       16
 70
   128
 43
0.0
 10
431.4963975946
 20
-201.6474628811
 10
433.9561240583
 20
-203.0674219204
 10
436.2901913395
 20
-204.4148148155
 10
438.488803424
 20
-205.6839957082
 10
440.5427444754
 20
-206.8696355108
 10
442.4433974388
 20
-207.96676306
 10
444.1827899743
 20
-208.9707733831
 10
445.753628043
 20
-209.8774653355
 10
447.1493182973
 20
-210.6830271474
 10
448.3640128619
 20
-211.384077484
 10
449.3926159194
 20
-211.9776844514
 10
450.230808735
 20
-212.4613557055
 10
450.8750786322
 20
-212.8330551785
 10
451.3227255786
 20
-213.0912312084
 10
451.5718661369
 20
-213.234800567
 10
451.6277950048
 20
-213.2668871331
  0
LWPOLYLINE
  5
DC
330
1F
100
AcDbEntity
  8
0
  6
Continuous
 62
     1
370
    25
100
AcDbPolyline
 90
       35
 70
   128
 43
0.0
 10
356.3650013364
 20
-158.2668874033
 10
356.421467906
 20
-158.2996932937
 10
356.6713223265
 20
-158.4442188149
 10
357.119678052
 20
-158.703352986
 10
357.7646492786
 20
-159.0759964709
 10
358.6035317549
 20
-159.5605825963
 10
359.6328101498
 20
-160.1550974369
 10
360.8481642467
 20
-160.8570245328
 10
362.2444939477
 20
-161.6634460462
 10
363.8159484141
 20
-162.5709651017
 10
365.5559342982
 20
-163.57576796
 10
367.4571496585
 20
-164.6736500655
 10
369.5116254481
 20
-165.8599981782
 10
371.7107439533
 20
-167.1298527353
 10
374.0452789658
 20
-168.4778846591
 10
376.5054352944
 20
-169.8984151316
 10
379.0809014492
 20
-171.3855098926
 10
381.7608720321
 20
-172.9329328545
 10
384.5341056881
 20
-174.5341734793
 10
387.3889725214
 20
-176.1825349929
 10
390.3134975586
 20
-177.8710971243
 10
393.2954081641
 20
-179.5927738998
 10
396.3222051634
 20
-181.3403516659
 10
399.381189184
 20
-183.1064951745
 10
402.4595344131
 20
-184.8837932075
 10
405.5443241588
 20
-186.6647973604
 10
408.6226206557
 20
-188.4420380116
 10
411.6815151142
 20
-190.2080532169
 10
414.7081738191
 20
-191.9554396582
 10
417.6899026664
 20
-193.6768746967
 10
420.6141972129
 20
-195.3651300564
 10
423.4687914088
 20
-197.0131273364
 10
426.2417122562
 20
-198.6139513156
 10
428.9213257433
 20
-200.1608947203
 10
431.4963975946
 20
-201.6474628811
  0
ENDSEC
  0
SECTION
  2
OBJECTS
  0
DICTIONARY
  5
C
330
0
100
AcDbDictionary
281
     1
  3
ACAD_GROUP
350
D
  3
ACAD_LAYOUT
350
1A
  3
ACAD_MLINESTYLE
350
17
  3
ACAD_PLOTSETTINGS
350
19
  3
ACAD_PLOTSTYLENAME
350
E
  3
ACAD_SCALELIST
350
47
  0
DICTIONARY
  5
D
102
{ACAD_REACTORS
330
C
102
}
330
C
100
AcDbDictionary
281
     1
  0
DICTIONARY
  5
1A
102
{ACAD_REACTORS
330
C
102
}
330
C
100
AcDbDictionary
281
     1
  3
Layout1
350
1E
  3
Layout2
350
26
  3
Model
350
22
  0
DICTIONARY
  5
17
102
{ACAD_REACTORS
330
C
102
}
330
C
100
AcDbDictionary
281
     1
  3
Standard
350
18
  0
DICTIONARY
  5
19
102
{ACAD_REACTORS
330
C
102
}
330
C
100
AcDbDictionary
281
     1
  0
ACDBDICTIONARYWDFLT
  5
E
102
{ACAD_REACTORS
330
C
102
}
330
C
100
AcDbDictionary
281
     1
  3
Normal
350
F
100
AcDbDictionaryWithDefault
340
F
  0
DICTIONARY
  5
47
102
{ACAD_REACTORS
330
C
102
}
330
C
100
AcDbDictionary
281
     1
  3
A0
350
48
  3
A1
350
49
  3
A2
350
4A
  3
A3
350
4B
  3
A4
350
4C
  3
A5
350
4D
  3
A6
350
4E
  3
A7
350
4F
  3
A8
350
50
  3
A9
350
51
  3
B0
350
52
  3
B1
350
53
  3
B2
350
54
  3
B3
350
55
  3
B4
350
56
  3
B5
350
57
  3
B6
350
58
  3
B7
350
59
  3
B8
350
5A
  3
B9
350
5B
  3
C0
350
5C
  3
C1
350
5D
  3
C2
350
5E
  3
C3
350
5F
  3
C4
350
60
  3
C5
350
61
  3
C6
350
62
  3
C7
350
63
  3
C8
350
64
  3
C9
350
65
  3
D0
350
66
  3
D1
350
67
  3
D2
350
68
  0
LAYOUT
  5
1E
102
{ACAD_REACTORS
330
1A
102
}
330
1A
100
AcDbPlotSettings
  1

  2
none_device
  4

  6

 40
0.0
 41
0.0
 42
0.0
 43
0.0
 44
0.0
 45
0.0
 46
0.0
 47
0.0
 48
0.0
 49
0.0
140
0.0
141
0.0
142
1.0
143
1.0
 70
   688
 72
     1
 73
     0
 74
     5
  7

 75
    16
147
1.0
148
0.0
149
0.0
100
AcDbLayout
  1
Layout1
 70
     1
 71
     1
 10
0.0
 20
0.0
 11
420.0
 21
297.0
 12
0.0
 22
0.0
 32
0.0
 14
1.0000000000E+20
 24
1.0000000000E+20
 34
1.0000000000E+20
 15
-1.0000000000E+20
 25
-1.0000000000E+20
 35
-1.0000000000E+20
146
0.0
 13
0.0
 23
0.0
 33
0.0
 16
1.0
 26
0.0
 36
0.0
 17
0.0
 27
1.0
 37
0.0
 76
     0
330
1B
  0
LAYOUT
  5
26
102
{ACAD_REACTORS
330
1A
102
}
330
1A
100
AcDbPlotSettings
  1

  2
none_device
  4

  6

 40
0.0
 41
0.0
 42
0.0
 43
0.0
 44
0.0
 45
0.0
 46
0.0
 47
0.0
 48
0.0
 49
0.0
140
0.0
141
0.0
142
1.0
143
1.0
 70
   688
 72
     1
 73
     0
 74
     5
  7

 75
    16
147
1.0
148
0.0
149
0.0
100
AcDbLayout
  1
Layout2
 70
     1
 71
     2
 10
0.0
 20
0.0
 11
0.0
 21
0.0
 12
0.0
 22
0.0
 32
0.0
 14
0.0
 24
0.0
 34
0.0
 15
0.0
 25
0.0
 35
0.0
146
0.0
 13
0.0
 23
0.0
 33
0.0
 16
1.0
 26
0.0
 36
0.0
 17
0.0
 27
1.0
 37
0.0
 76
     0
330
23
  0
LAYOUT
  5
22
102
{ACAD_REACTORS
330
1A
102
}
330
1A
100
AcDbPlotSettings
  1

  2
none_device
  4
Letter_(8.50_x_11.00_Inches)
  6

 40
6.35
 41
6.35
 42
6.35000508
 43
6.35000508
 44
215.9
 45
279.4
 46
0.0
 47
0.0
 48
0.0
 49
0.0
140
0.0
141
0.0
142
1.0
143
1.0
 70
  1712
 72
     1
 73
     0
 74
     0
  7

 75
     0
147
1.0
148
0.0
149
0.0
100
AcDbLayout
  1
Model
 70
     1
 71
     0
 10
0.0
 20
0.0
 11
279.4
 21
215.9
 12
0.0
 22
0.0
 32
0.0
 14
0.0
 24
0.0
 34
0.0
 15
279.4
 25
215.9
 35
0.0
146
0.0
 13
0.0
 23
0.0
 33
0.0
 16
1.0
 26
0.0
 36
0.0
 17
0.0
 27
1.0
 37
0.0
 76
     0
330
1F
331
29
  0
MLINESTYLE
  5
18
102
{ACAD_REACTORS
330
17
102
}
330
17
100
AcDbMlineStyle
  2
Standard
 70
     0
  3

 62
   256
 51
90.0
 52
90.0
 71
     2
 49
0.5
 62
   256
  6
BYLAYER
 49
-0.5
 62
   256
  6
BYLAYER
  0
ACDBPLACEHOLDER
  5
F
102
{ACAD_REACTORS
330
E
102
}
330
E
  0
SCALE
  5
48
102
{ACAD_REACTORS
330
47
102
}
330
47
100
AcDbScale
 70
     0
300
1:1
140
1.0
141
1.0
290
     1
  0
SCALE
  5
49
102
{ACAD_REACTORS
330
47
102
}
330
47
100
AcDbScale
 70
     0
300
1:2
140
1.0
141
2.0
290
     0
  0
SCALE
  5
4A
102
{ACAD_REACTORS
330
47
102
}
330
47
100
AcDbScale
 70
     0
300
1:4
140
1.0
141
4.0
290
     0
  0
SCALE
  5
4B
102
{ACAD_REACTORS
330
47
102
}
330
47
100
AcDbScale
 70
     0
300
1:5
140
1.0
141
5.0
290
     0
  0
SCALE
  5
4C
102
{ACAD_REACTORS
330
47
102
}
330
47
100
AcDbScale
 70
     0
300
1:8
140
1.0
141
8.0
290
     0
  0
SCALE
  5
4D
102
{ACAD_REACTORS
330
47
102
}
330
47
100
AcDbScale
 70
     0
300
1:10
140
1.0
141
10.0
290
     0
  0
SCALE
  5
4E
102
{ACAD_REACTORS
330
47
102
}
330
47
100
AcDbScale
 70
     0
300
1:16
140
1.0
141
16.0
290
     0
  0
SCALE
  5
4F
102
{ACAD_REACTORS
330
47
102
}
330
47
100
AcDbScale
 70
     0
300
1:20
140
1.0
141
20.0
290
     0
  0
SCALE
  5
50
102
{ACAD_REACTORS
330
47
102
}
330
47
100
AcDbScale
 70
     0
300
1:30
140
1.0
141
30.0
290
     0
  0
SCALE
  5
51
102
{ACAD_REACTORS
330
47
102
}
330
47
100
AcDbScale
 70
     0
300
1:40
140
1.0
141
40.0
290
     0
  0
SCALE
  5
52
102
{ACAD_REACTORS
330
47
102
}
330
47
100
AcDbScale
 70
     0
300
1:50
140
1.0
141
50.0
290
     0
  0
SCALE
  5
53
102
{ACAD_REACTORS
330
47
102
}
330
47
100
AcDbScale
 70
     0
300
1:100
140
1.0
141
100.0
290
     0
  0
SCALE
  5
54
102
{ACAD_REACTORS
330
47
102
}
330
47
100
AcDbScale
 70
     0
300
2:1
140
2.0
141
1.0
290
     0
  0
SCALE
  5
55
102
{ACAD_REACTORS
330
47
102
}
330
47
100
AcDbScale
 70
     0
300
4:1
140
4.0
141
1.0
290
     0
  0
SCALE
  5
56
102
{ACAD_REACTORS
330
47
102
}
330
47
100
AcDbScale
 70
     0
300
8:1
140
8.0
141
1.0
290
     0
  0
SCALE
  5
57
102
{ACAD_REACTORS
330
47
102
}
330
47
100
AcDbScale
 70
     0
300
10:1
140
10.0
141
1.0
290
     0
  0
SCALE
  5
58
102
{ACAD_REACTORS
330
47
102
}
330
47
100
AcDbScale
 70
     0
300
100:1
140
100.0
141
1.0
290
     0
  0
SCALE
  5
59
102
{ACAD_REACTORS
330
47
102
}
330
47
100
AcDbScale
 70
     0
300
1/128" = 1'-0"
140
0.0078125
141
12.0
290
     0
  0
SCALE
  5
5A
102
{ACAD_REACTORS
330
47
102
}
330
47
100
AcDbScale
 70
     0
300
1/64" = 1'-0"
140
0.015625
141
12.0
290
     0
  0
SCALE
  5
5B
102
{ACAD_REACTORS
330
47
102
}
330
47
100
AcDbScale
 70
     0
300
1/32" = 1'-0"
140
0.03125
141
12.0
290
     0
  0
SCALE
  5
5C
102
{ACAD_REACTORS
330
47
102
}
330
47
100
AcDbScale
 70
     0
300
1/16" = 1'-0"
140
0.0625
141
12.0
290
     0
  0
SCALE
  5
5D
102
{ACAD_REACTORS
330
47
102
}
330
47
100
AcDbScale
 70
     0
300
3/32" = 1'-0"
140
0.09375
141
12.0
290
     0
  0
SCALE
  5
5E
102
{ACAD_REACTORS
330
47
102
}
330
47
100
AcDbScale
 70
     0
300
1/8" = 1'-0"
140
0.125
141
12.0
290
     0
  0
SCALE
  5
5F
102
{ACAD_REACTORS
330
47
102
}
330
47
100
AcDbScale
 70
     0
300
3/16" = 1'-0"
140
0.1875
141
12.0
290
     0
  0
SCALE
  5
60
102
{ACAD_REACTORS
330
47
102
}
330
47
100
AcDbScale
 70
     0
300
1/4" = 1'-0"
140
0.25
141
12.0
290
     0
  0
SCALE
  5
61
102
{ACAD_REACTORS
330
47
102
}
330
47
100
AcDbScale
 70
     0
300
3/8" = 1'-0"
140
0.375
141
12.0
290
     0
  0
SCALE
  5
62
102
{ACAD_REACTORS
330
47
102
}
330
47
100
AcDbScale
 70
     0
300
1/2" = 1'-0"
140
0.5
141
12.0
290
     0
  0
SCALE
  5
63
102
{ACAD_REACTORS
330
47
102
}
330
47
100
AcDbScale
 70
     0
300
3/4" = 1'-0"
140
0.75
141
12.0
290
     0
  0
SCALE
  5
64
102
{ACAD_REACTORS
330
47
102
}
330
47
100
AcDbScale
 70
     0
300
1" = 1'-0"
140
1.0
141
12.0
290
     0
  0
SCALE
  5
65
102
{ACAD_REACTORS
330
47
102
}
330
47
100
AcDbScale
 70
     0
300
1-1/2" = 1'-0"
140
1.5
141
12.0
290
     0
  0
SCALE
  5
66
102
{ACAD_REACTORS
330
47
102
}
330
47
100
AcDbScale
 70
     0
300
3" = 1'-0"
140
3.0
141
12.0
290
     0
  0
SCALE
  5
67
102
{ACAD_REACTORS
330
47
102
}
330
47
100
AcDbScale
 70
     0
300
6" = 1'-0"
140
6.0
141
12.0
290
     0
  0
SCALE
  5
68
102
{ACAD_REACTORS
330
47
102
}
330
47
100
AcDbScale
 70
     0
300
1'-0" = 1'-0"
140
12.0
141
12.0
290
     0
  0
ENDSEC
  0
EOF
